» » »

The Longest Walk Bass tabs (ver.1)

Artists:  A B C D E F G H I J K L M N O P Q R S T U V W X Y Z # 

The Longest Walk Bass tabs (ver.1)

Teen Idols
Rating:
0/5 (0 votes)

Hard to play? Try these video lessons and learn fast.
                THE LONGEST WALK by Teen Idols. Album :Nothing To Prove
:
# verse-1 #   *=play x8  #=play x12 
G-----------(x8)-----------|--------------------|
D----*---*---*-------------|----#---#---#---#---|
A---0---0---0--------2-3---|---7---5---7---5----|
E---------------3333-------|--------------------|
:
# chorus #   *=play x6  #=play x24 
G----------------------------------------------->|
D---------*---*-----------------*---*----------->|
A----*---3---5---111-13----*---3---1---111-13--->|
E---1---------------------1--------------------->|
:
G--------------------------------------------|
D---------*---*-----------------*--------#---|
A----*---3---5---111-13----*---3---11---1----|
E---1---------------------1------------------|
:
# verse-2 #   *=play x8  #=play x12 
G-----------(x4)-----------|--------------------|
D----*---*---*-------------|----#---#---#---#---|
A---0---0---0--------2-3---|---7---5---7---5----|
E---------------3333-------|--------------------|
:
Then play chorus
:
# bridge #   *=play x8  #=play x6
G-----------(x4)-----------|--------------------|
D----*---*---*-------------|----#---#---#---#---|
A---0---0---0--------2-3---|---2---0---2---0----|
E---------------3333-------|--------------------|
:
# outro #   *=play x6  
G--------------------(x3)----------------------->|
D---------*---*-----------------*---*----------->|
A----*---3---5---111-13----*---3---1---111-13--->|
E---1---------------------1--------------------->|
:
G--------------------------------------|
D---------*---*-----------------*------|
A----*---3---5---111-13----*---3---1---|
E---1---------------------1------------|
:
            
Hard to play? Try these video lessons and learn fast. | Correct




comments powered by Disqus
↑ Back to top | Tablatures and chords are parodies/interpretations of the original songs. You may use it for private study, scholarship, research or language learning purposes only