» » »

Test Tube Teens Tabs (ver.1)

Artists:  A B C D E F G H I J K L M N O P Q R S T U V W X Y Z # 

Test Tube Teens Tabs (ver.1)

Teen Idols
Rating:
0/5 (0 votes)

Hard to play? Try these video lessons and learn fast.
                
 Figure out the out the song arrangement yourself
 intro
e|---------------------------------------------------------------------------|
B|---------------------------------------------------------------------------|
G|---------5-----------------------------------------------------------------|
D|---------5--x4--2-x2--------5----------3---------5-------------------------|
A|---------3------2-----------5-x2-------3-x4------5--x4---------------------|
E|----------------0-----------3----------1---------3--------------------------|

  verse
e|---------------------------------------------------------------------------|
B|---------------------------------------------------------------------------|
G|--------5------------------------------------------------------------------|
D|--------5-x4-------3x4-------5x4  repeat that a bunch of times-------------|
A|--------3----------3---------5---------------------------------------------|
E|-------------------1---------3----------------------------------------------|

  chorus
e|---------------------------------------------------------------------------|
B|---------------------------------------------------------------------------|
G|---------------------5x2---------------------------------------------------|
D|---3x2-----5-x2------5------5x2-slide-to-next-chord----7-repeat chorus ends|
A|---3-------5-----3----------5--------------------------7-------------------|
E|---1-------3----------------3--------------------------5----------------------|

  A very nice solo
e|---------------------------------------------------------------------------|
B|---------------------------------------------------------------------------|
G|--------4-5-7-5-4-5-7-slide-9-7-5-7-9-slide-10-10-9-10-12........----------|
D|------5--------------------------------------------------------------------|
A|---------------------------------------------------------------------------|
E|------------I'm to lazy to tab out the rest -------------------------------|
            
Hard to play? Try these video lessons and learn fast. | Correct




comments powered by Disqus
↑ Back to top | Tablatures and chords are parodies/interpretations of the original songs. You may use it for private study, scholarship, research or language learning purposes only