» » »

Pucker Up Tabs (ver.1)

Artists:  A B C D E F G H I J K L M N O P Q R S T U V W X Y Z # 

Pucker Up Tabs (ver.1)

Teen Idols
Rating:
0/5 (0 votes)

Hard to play? Try these video lessons and learn fast.
                
Verse:
e|---------------------------------------------------------------------------|
B|---------------------------------------------------------------------------|
G|-------7---------9---------7---------9-------------------------------------|
D|--7----7----7----9----7----7----7----9----7-----------(x2)-----------------|
A|--7----5----7----7----7----5----7----7----7--------------------------------|
E|--5---------5---------5---------5---------5--------------------------------|

Post-verse (sorry, I dunno what to call it): "now you say you're sorry..."
e|---------------------------------------------------------------------------|
B|---------------------------------------------------------------------------|
G|--9---------7---------9----------------------------------------------------|
D|--9----7----7----7----9-----------------------(x1)-------------------------|
A|--7----7----5----7----7----------------------------------------------------|
E|-------5---------5---------------------------------------------------------|

Pre-chorus:
e|---------------------------------------------------------------------------|
B|---------------------------------------------------------------------------|
G|--7----9-------------7----9------------------------------------------------|
D|--7----9----7-6-4----7----9------------------(x1)--------------------------|
A|--5----7----7-6-4----5----7------------------------------------------------|
E|------------5-4-2----------------------------------------------------------|

Chorus:
e|---------------------------------------------------------------------------|
B|---------------------------------------------------------------------------|
G|----7-7-7----9----------------------7--------------------------------------|
D|--7-7-7-7----9--------------(x2)--7-7-7------------------------------------|
A|--7-5-5-5----7--------------------7-5-7------------------------------------|
E|--5-------------------------------5---5------------------------------------|

After this the key goes up one step. Just move everything up two frets. The 
second set of verses goes straight into the chorus (no post verse or pre 
chorus).
            
Hard to play? Try these video lessons and learn fast. | Correct




comments powered by Disqus
↑ Back to top | Tablatures and chords are parodies/interpretations of the original songs. You may use it for private study, scholarship, research or language learning purposes only