» » »

Now And Then Tabs (ver.1)

Artists:  A B C D E F G H I J K L M N O P Q R S T U V W X Y Z # 

Now And Then Tabs (ver.1)

Teen Idols
Rating:
0/5 (0 votes)

Hard to play? Try these video lessons and learn fast.
                
Intro: x2
e|-----------------------------------------|
B|-----------------------------------------|
G|--5--------------------------------------|
D|--5----7----3----5-----------------------|
A|--3----7----3----5-----------------------|
E|-------5----1----3-----------------------|

Verse: x2
e|-----------------------------------------|
B|-----------------------------------------|
G|--5--------------------------------------|
D|--5--------7-----------------------------|
A|--3--------7-----------------------------|
E|-----------5-----------------------------|

Pre-Chorus: x1
e|-----------------------------------------|
B|-----------------------------------------|
G|-----------------------------------------|
D|--3----5----2----7----3------5-----------|
A|--3----5----2----7----3------5-----------|
E|--1----3----0----5----1------3-----------|

Chorus: play Intro twice.

Guitar Solo: play Verse twice & Pre-Chorus once
            
Hard to play? Try these video lessons and learn fast. | Correct




comments powered by Disqus
↑ Back to top | Tablatures and chords are parodies/interpretations of the original songs. You may use it for private study, scholarship, research or language learning purposes only