» » »

Lovely Day Tabs (ver.1)

Artists:  A B C D E F G H I J K L M N O P Q R S T U V W X Y Z # 

Lovely Day Tabs (ver.1)

Teen Idols
Rating:
0/5 (0 votes)
Tabs too difficult? Try these video lessons and learn fast.
                
Intro/PreChorus           X2
-------------------------------:-------------------------------------|
-------------------------------:-------------------------------------|
--7-7-7------------------------:-7-7-7----7-7-7----7-7-7----7---7----|
--7-7-7-7--7-7-7-7-7-7-7-7-7-7-:-7-7-7-7--7-7-7-7--7-7-7-7--7-7-7-7--|
--5-5-5-7--7-7-7-7-7-7-7-7-7-7-:-5-5-5-7--5-5-5-7--5-5-5-7--5-7-5-7--|
--------5--5-5-5-5-5-5-5-5-5-5-:-------5--------5--------5----5---5--|
          |-----palm mute-----|

Verse X3
-----------------------------------|
-----------------------------------|
--7-7-7-7--------------------------|
--7-7-7-7-5-5-5-5-7-7-7-7-7-7-7-7--|
--5-5-5-5-5-5-5-5-7-7-7-7-7-7-7-7--|
----------3-3-3-3-5-5-5-5-5-5-5-5--|

PreChorus

Chorus X4
-----------------------------------|
-----------------------------------|
--7-7-7-7-------------6-6-7-7-7-7--|
--7-7-7-7-9-9-9-9-9-9-6-6-7-7-7-7--|
--5-5-5-5-9-9-9-9-9-9-4-4-5-5-5-5--|
----------7-7-7-7-7-7--------------|

Verse

PreChorus

Chorus

Solo
----7----------------------------7----8--7--5--5-10--8-7---7--------------|
--7----7---4------6----7-6-4-6-7----7--------------------7----7---4-------|
---------5----5-7----7------------------------------------------5----5-7--|

PreChorus

Chorus
            
Tabs too difficult? Try these video lessons and learn fast.


comments powered by Disqus
↑ Back to top | Tablatures and chords are parodies/interpretations of the original songs. You may use it for private study, scholarship, research or language learning purposes only