» » »

Let's Make Noise Bass tabs (ver.1)

Artists:  A B C D E F G H I J K L M N O P Q R S T U V W X Y Z # 

Let's Make Noise Bass tabs (ver.1)

Teen Idols
Rating:
0/5 (0 votes)

Hard to play? Try these video lessons and learn fast.
                LETS MAKE NOISE by Teen Idols. Album : Teen Idols
:
# chorus #   *=play x5  #=play x3-4
G------(x3)-------|---------------------|
D---------#---#---|---------#-----------|
A----*---5---7----|----#---5----*---*---|
E---5-------------|---5--------5---5----|
:
# verse #  x2   *=play x3-4   #=play x6
G--------(x4)---------|---------------------#-------------------->|
D-------------*---*---|----#---#---------6h7-----#---#---#------->|
A----*---*---5---7----|---5---7------#----------5---7---0----#--->|
E---5---5-------------|-----------4h5-----------------------2---->|
: 
G-------------------------------------|
D----#---#--------#-------------------|
A---5---5---/9---7---77--55--44-------|
E--------------------------------77---|
:
Then play chorus
:
# outro #   *=play x5  
G-------(x3)--------|------------------|
D-------------------|------------------|
A----*---555--777---|---77--55---------|
E---5---------------|-----------5555---|
:
            
Hard to play? Try these video lessons and learn fast. | Correct




comments powered by Disqus
↑ Back to top | Tablatures and chords are parodies/interpretations of the original songs. You may use it for private study, scholarship, research or language learning purposes only