» » »

King Just For A Day Tabs (ver.1)

Artists:  A B C D E F G H I J K L M N O P Q R S T U V W X Y Z # 

King Just For A Day Tabs (ver.1)

Teen Idols
Rating:
0/5 (0 votes)

Tabs too difficult? Try these video lessons and learn fast.
                
Intro & Chorus "With my back against the wall..."
e|------------------------|    |---------|
B|------------------------|    |-[End]---|
G|--5-----3---------------|    |---5-----|
D|--5-----3-----3-----5---|    |---5-----|
A|--3-----1-----3-----5---|    |---3-----|
E|--------------1-----3---|    |---------|

Verse "Down and out again..."
e|------------------------|
B|------------------------|
G|--5---------------------|
D|--5-----5-----3-----5---|
A|--3-----5-----3-----5---|
E|--------3-----1-----3---|
            
Tabs too difficult? Try these video lessons and learn fast.


comments powered by Disqus
↑ Back to top | Tablatures and chords are parodies/interpretations of the original songs. You may use it for private study, scholarship, research or language learning purposes only