» » »

Teen Idols, I Don Want Her Bass tabs (ver.1)

Artists:  A B C D E F G H I J K L M N O P Q R S T U V W X Y Z # 

I Don Want Her Bass tabs (ver.1)

Teen Idols Tabs
 Rating:
4/5 (4 votes)
I Don	 Want Her lessons Tabs too difficult? Try these video lessons and learn fast
                I DON’T WANT HER by Teen Idols Album : Full Leather Jacket
:
# chorus # X2  *=play x5
G--------------------------|
D----*---------------------|
A---3----*---*-------------|
E-------1---3---33--1--3---|
:
# end-chorus #   *=play x5
G----------------------------------------|
D-------------*---*------------*---------|
A----*---*---3---0----*---*---3---3333---|
E---1---3------------1---3---------------|
:
# verse #   *=play x5
G--------------------------------------------------------------------------|
D----*---*------------*---*------------*---*------------------------*---*--|
A---3---3----*---*---3---3----*---*---3---3---00-------*---*---*---3---3---|
E-----------1---1------------3---3----------------33--1---1---3------------|
:
# pre-chorus #   *=play x5
G----------------------------------------------------------------------|
D----*---*----------------------------*---*------------*---*-----------|
A---0---0----*---*---*---*---*---*---0---0----*---*---0---0----*---*---|
E-----------0---0---1---1---3---3------------0---0------------3---3----|
:
Then Play chorus, end-chorus, verse, pre-chorus, chorus, end-chorus, chorus
:
# outro #   *=play x5
G---------------------------------|
D-------------*---*---------------|
A----*---*---3---0----*---*---3---|
E---1---3------------1---3--------|
:
            
Submit corrections

comments powered by Disqus
↑ Back to top | Teen Idols Bass for I Don Want Her. Lyrics for acoustic guitar and electric guitar. Tablatures and chords are parodies/interpretations of the original songs. You may use it for private study, scholarship, research or language learning purposes only