» » »

Teen Idols, Genuine Whiskey Man Tabs (ver.1)

Artists:  A B C D E F G H I J K L M N O P Q R S T U V W X Y Z # 

Genuine Whiskey Man Tabs (ver.1)

Teen Idols Tabs
Rating:
0/5 (0 votes)
Genuine Whiskey Man lessons Tabs too difficult? Try these video lessons and learn fast
                
Intro: 2X
e|----7--------9--------11-----------------------------------------------------|
B|----7--------9--------11-----------------------------------------------------|
G|----8--------9--------11-----------------------------------------------------|
D|----9--------9--------11-----------------------------------------------------|
A|----9--------7--------9------------------------------------------------------|
E|----7--------7--------9------------------------------------------------------|

Frist Verse: 2X
     p.m.     p.m.     p.m.      p.m.     p.m.   without p.m. (on 2nd time only)
e|----7--------11-------9--------11--------7--------7--------------------------|
B|----7--------11-------9--------11--------7--------7--------------------------|
G|----8--------11-------9--------11--------8--------8--------------------------|
D|----9--------11-------9--------11--------9--------9--------------------------|
A|----9--------9--------7--------9---------9--------9--------------------------|
E|----7--------9--------7--------9---------7--------7--------------------------|

Chorus, 1st part: starting with "Just look at my hair in the mirror..."
e|----7--------7--------7--------11--------------------------------------------|
B|----7--------7--------7--------11--------------------------------------------|
G|----7--------8--------7--------11--------------------------------------------|
D|----7--------9--------7--------11--------------------------------------------|
A|----9--------9--------9--------9---------------------------------------------|
E|----9--------7--------9--------9---------------------------------------------|

Chorus, 2nd part: starting with "I don't remember last night..." 4X
then back to Chorus, 1st part.
e|----7--------7--------11-----------------------------------------------------|
B|----7--------7--------11-----------------------------------------------------|
G|----8--------7--------11-----------------------------------------------------|
D|----9--------7--------11-----------------------------------------------------|
A|----9--------9--------9------------------------------------------------------|
E|----7--------9--------9------------------------------------------------------|

Bridge: 4X
e|----7--------7--------11-----------------------------------------------------|
B|----7--------7--------11-----------------------------------------------------|
G|----8--------7--------11-----------------------------------------------------|
D|----9--------7--------11-----------------------------------------------------|
A|----9--------9--------9------------------------------------------------------|
E|----7--------9--------9------------------------------------------------------|

Second Verse: starting with "Came in late to work again..."
same as First Verse, then back to Chorus 1st and 2nd part.

Outro: Same as Intro 4X
            

comments powered by Disqus
↑ Back to top | Teen Idols Tabs for Genuine Whiskey Man. Lyrics for acoustic guitar and electric guitar. Tablatures and chords are parodies/interpretations of the original songs. You may use it for private study, scholarship, research or language learning purposes only