» » »

Coming Down Bass tabs (ver.1)

Artists:  A B C D E F G H I J K L M N O P Q R S T U V W X Y Z # 

Coming Down Bass tabs (ver.1)

Teen Idols
Rating:
0/5 (0 votes)

Hard to play? Try these video lessons and learn fast.
                COMING DOWN by Teen Idols Album : Full Leather Jacket
:
# chorus # X2  *=play x5
G-------------------------------------------|
D----*----*----*----*----*----*----*----*---|
A---5----5----3----3----2----2----1----0----|
E-------------------------------------------|
:
# verse #  *=play x5
G-------------------X2----------------------|--------------------------|
D----*----*----*----*----*----*----*----*---|----*----*----*-----------|
A---5----5----5----5----2----2----3----3----|---0----0----0----00------|
E-------------------------------------------|---------------------33---|
:
Then Play Chorus x4, Verse, Chorus x4
:
# During Solo #  *=play x5
G-------------------------------------------|
D----*----*----*----*----*----*-------------|
A---5----5----3----3----1----1-----*----*---|
E---------------------------------3----0----|
:
Then Play Chorus x4 & End on First Note
:
            
Hard to play? Try these video lessons and learn fast. | Correct




comments powered by Disqus
↑ Back to top | Tablatures and chords are parodies/interpretations of the original songs. You may use it for private study, scholarship, research or language learning purposes only