» » »

Teen Idols, Come Dance With Me Tabs (ver.1)

Artists:  A B C D E F G H I J K L M N O P Q R S T U V W X Y Z # 

Come Dance With Me Tabs (ver.1)

Teen Idols Tabs
Rating:
0/5 (0 votes)
Come Dance With Me lessons Tabs too difficult? Try these video lessons and learn fast
                come on the strumming is that hard to figure out! 

verse: chorus: 
E |-------------------|---------------------| 
B |-------------------|---------------------| 
G |-7-----------------|--5-----7------------| 
D |-7--7--5-x3--5--7--|--5--5--7-x3---5--7--| 
A |-5--7--5-----5--7--|--3--5--5------5--7--| 
E |----5--3-----3--5--|-----3---------3--5--| 

NOT 100% sure if the solo is right, but mess around with it and send 
me a correction, thank! 

solo: 
E |------------------------------------------------------------------ 
B |------------------------------------------------------------------ 
G |-7--9--11-12-11-12-11-9--7--12-11-9--7--9--11-12-12-11-9--7--14-12 
D |------------------------------------------------------------------ 
A |------------------------------------------------------------------ 
E |------------------------------------------------------------------ 

E |------------------------------------------------------------------ 
B |------------------------------------------------------------------ 
G |-11-9--7--9--11-12-11-12-11-9--7--14-12-11-9--14-12-11-9--7--9--11 
D |------------------------------------------------------------------ 
A |------------------------------------------------------------------ 
E |------------------------------------------------------------------ 

E |--------------------- 
B |--------------------- 
G |-12-14-12-11-9------- 
D |--------------------- 
A |--------------------- 
E |---------------------
            

comments powered by Disqus
↑ Back to top | Teen Idols Tabs for Come Dance With Me. Lyrics for acoustic guitar and electric guitar. Tablatures and chords are parodies/interpretations of the original songs. You may use it for private study, scholarship, research or language learning purposes only