» » »

Teen Idols, Camera Shy Tabs (ver.1)

Artists:  A B C D E F G H I J K L M N O P Q R S T U V W X Y Z # 

Camera Shy Tabs (ver.1)

Teen Idols Tabs
 Rating:
4/5 (4 votes)
Camera Shy lessons Tabs too difficult? Try these video lessons and learn fast
                
Intro:
e|------------------------------||----------||-------|
B|------------------------------||-[Riff]---||-[End]-|
G|--------5---------------------||-------5--||-------|
D|--5-----5-----5-5-5-5-5-5-5-5-||--5----5--||---5---|
A|--5-----3-----5-5-5-5-5-5-5-5-||--5----3--||---5---|
E|--3-----------3-3-3-3-3-3-3-3-||--3-------||---3---|

Verse "So well composed..." :
e|--------------------------|
B|--------------------------|
G|--------7-----5-----5-----|
D|--5-----7-----5-----5-----|
A|--5-----5-----3-----3-----|
E|--3-----------------------|

Chorus "I never really thought..." : same as [Riff]

Bridge "You never really  know..."
e|-----------------------------------------|
B|-----------------------------------------|
G|--------5-----------7-----------5-----7--|
D|--7-----5-----5-----7-----7-----5-----7--|
A|--7-----3-----5-----5-----7-----3-----5--|
E|--5-----------3-----------5--------------|



Intro(x1) & [Riff](x2)
Verse(x2)
Chorus(x4)
Bridge(x1)
Chorus(x4)
Verse(x2)
Chorus(x4)
Bridge(x1)
Chorus(x4)
[End]
            
Submit corrections

comments powered by Disqus
↑ Back to top | Teen Idols Tabs for Camera Shy. Lyrics for acoustic guitar and electric guitar. Tablatures and chords are parodies/interpretations of the original songs. You may use it for private study, scholarship, research or language learning purposes only