» » »

Breakin' Up Bass tabs (ver.1)

Artists:  A B C D E F G H I J K L M N O P Q R S T U V W X Y Z # 

Breakin' Up Bass tabs (ver.1)

Teen Idols
Rating:
0/5 (0 votes)

Hard to play? Try these video lessons and learn fast.
                BREAKIN’ UP by Teen Idols Album : Teen Idols
:
# verse #   *=play x5  
G----*--------*--------*--------*-------|    
D---5----*---2----*---5----*---2----*---|
A-------5--------5--------5--------5----|
E—--------------------------------------|
:
# chorus #   *=play x5   
G----------------:-------------:-------------:-------------:---------------|
D---------22----------------------------------------22---------------------|
A------55----555-----22-33---------33-55-555-----55----555------22-33------|
E—--33------------33-------555--33------------33-------------33-------555--|
:
Then Play Verse & Chorus
:
# fill #   *=play x5  
G--------------------------------------|    
D-------------*---*------------*---*---|
A----*---*---3---5----*---*---3---5----|
E—--0---3------------0---3-------------|
:
Then Play Verse, Chorus, Fill
:
# outro #
G---------------:-------------:-------------:-------------:--------------->|
D--------22----------------------------------------22--------------------->|
A-----55----555-----22-33---------33-55-555-----55----555------22-33------>|
E—-33------------33-------555--33------------33-------------33-------555-->|
:
G----------------:------------------|
D---------22------------------------|
A------55----555------33-55-555-----|
E---33-------------33-----------3---|
:
            
Hard to play? Try these video lessons and learn fast. | Correct




comments powered by Disqus
↑ Back to top | Tablatures and chords are parodies/interpretations of the original songs. You may use it for private study, scholarship, research or language learning purposes only