>
 >
1989

1989 Guitar Tabs

Teen Idols - 1989 chords, tabs, tablatures, lyrics

Guitar lessons | Add/correct | Request | Top 50 tabs Artists:  A B C D E F G H I J K L M N O P Q R S T U V W X Y Z 0-9

1989 Guitar Tabs – Teen Idols

CD, Sheet music, Poster

Do you like 1989? Share with your friends now
Tabs

chords:
   G5  A5  C5  D5  E5
|---------------------|
|---------------------|
|----------5---7---9--|
|--5---7---5---7---9--|
|--5---7---3---5---7--|
|--3---5--------------|

|---------------|--------------------------------|
|--17-15-14-----|-----17-15-14--15--14----14-----|
|-----------14--|-14-------------------16----14--|
|---------------|--------------------------------|
|---------------|--------------------------------|
|---------------|--------------------------------|
                 A5             D5     E5    A5
|------------------------------|
|-----17-15-14--15--14---------|
|-14-------------------16--14--|
|------------------------------|
|------------------------------|
|------------------------------|
  A5            D5     E5  A5    
|--------------------------------|
|-----17-15-14--15--14----14-----|
|--14------------------16----14--|
|--------------------------------|
|--------------------------------|
|--------------------------------|
  A5            D5     E5    A5  
|--------------------------------|
|-----17-15-14--15--14----14-----|
|--14------------------16----14--|
|--------------------------------|
|--------------------------------|
|--------------------------------|
   A5           D5      E5   A5

A5 C5 G5 D5 A5
A5 C5 G5 D5 A5

A5              C5           G5        D5   A5
nineteen eighty nine was her first all ages show
A5                C5 
when she laid her eyes right on 
     G5      C5     D5
this boy she had to know
G5           A5
but he had a girlfriend 
    G5              A5
and she was so *** mean
G5               A5   
when he looked into her eyes
    C5                D5
her heart burst at the seams
              A5               D5      E5  
she knows its true, he's gonna for-get you
A5               D5              E5
  and now theres nothing you can do
A5            D5       E5  
  for now she waits outside 
A5                       D5             E5
  cause she knows she'll be the next in line

A5 C5 G5 D5 A5
A5 C5 G5 D5 A5

A5            C5             G5      D5      A5
news of thier breakup didn't come as quite a shock
A5        C5              G5      D5     A5   
everybody knew it was the tickin' of the clock
G5          A5
she's anticipating 
G5                 A5
that he'll look to her 
G5                A5
when he asked her out that night
    C5             D5
her mind was all a blur

|---------------|--------------------------------|
|--17-15-14-----|-----17-15-14--15--14----14-----|
|-----------14--|-14-------------------16----14--|
|---------------|--------------------------------|
|---------------|--------------------------------|
|---------------|--------------------------------|
                 A5             D5     E5    A5
|------------------------------|
|-----17-15-14--15--14---------|
|-14-------------------16--14--|
|------------------------------|
|------------------------------|
|------------------------------|
  A5            D5     E5  A5    
|--------------------------------|
|-----17-15-14--15--14----14-----|
|--14------------------16----14--|
|--------------------------------|
|--------------------------------|
|--------------------------------|
  A5            D5     E5    A5  
|--------------------------------|
|-----17-15-14--15--14----14-----|
|--14------------------16----14--|
|--------------------------------|
|--------------------------------|
|--------------------------------|
   A5           D5      E5   A5

A5              C5           G5        D5   A5
nineteen eighty nine was her first all ages show
A5                C5 
when she laid her eyes right on 
     G5      C5     D5
this boy she had to know
G5           A5
but he had a girlfriend 
    G5              A5
and she was so *** mean
G5               A5   
when he looked into her eyes
    C5                D5
her heart burst at the seams
              A5               D5      E5  
she knows its true, he's gonna for-get you
A5               D5              E5
  and now theres nothing you can do
A5            D5       E5  
  for now she waits outside 
A5                       D5             E5
  cause she knows she'll be the next in line
A5           D5      E5  
  he's gonna for-get you
A5               D5              E5
  and now theres nothing you can do
A5            D5       E5  
  for now she waits outside 
A5                       D5             E5  
  cause she knows she'll be the next in line

A5 C5   G5 D5   A5

there it is. you can play the little solo on the first
and second strings, too. i think this way sounds
closer to the album.





Comments


Popular Teen Idols tabs & chords
I Don Want Her Bass Tabs
Waiting For You Bass Tabs
West End Road Bass Tabs
20 Below Tabs
Forever In My Dreams Tabs
Just Friends Tabs
Now And Then Tabs
One Pill Tabs
Pucker Up Tabs
Rebel Souls Tabs


Song lyrics



↑ Back to top | Tablatures and chords are parodies/interpretations of the original songs. You may use it for private study, scholarship, research or language learning purposes only
© 2014 AZChords.com Contact us | Privacy policy | DMCA | Add/correct tabs | Request tabs | Top 50 tabs