» » »

Teenage Bottlerocket, The Jerk Tabs (ver.1)

Artists:  A B C D E F G H I J K L M N O P Q R S T U V W X Y Z # 

The Jerk Tabs (ver.1)

Teenage Bottlerocket Tabs
 Rating:
4/5 (4 votes)
The Jerk lessons Tabs too difficult? Try these video lessons and learn fast
1
                
Tuning:standard




0:00-----------------------------------------------------------------»0:10

        guitar1 (plays this 2X)                 guitar2 (plays this 4X)
e|------------------------------/-------------------------------------------|
B|------------------------------/-------------------------------------------|
G|---4-----6--------------9-----/-------------------------------------------|
D|---4-----6------6-------9-----/-----------9-------------------------------|
A|--2-----4-------6------7------/-----777666----777666----------------------|
E|---------------4--------------/---------------------77--------------------|




0:10----------------------------0:30--------------------------------------0:50
         4X                                   4X
e|--------------------------------------------------------------------------|   
B|--------------------------------------------------------------------------|
G|--4--------9-----------------------------11---------9---------------------|
D|--4---6----9------------------------9----11----6----9---------------------|
A|-2----6---7-------------------------9---9------6---7----------------------|
E|-----4-----------------------------7----------4---------------------------|




0:50-----------------------------------------------------------------------1:00

        guitar1 (plays this 2X)                 guitar2 (plays this 4X)
e|------------------------------/-------------------------------------------|
B|------------------------------/-------------------------------------------|
G|---4-----6--------------9-----/-------------------------------------------|
D|---4-----6------6-------9-----/-----------9-------------------------------|
A|--2-----4-------6------7------/-----777666----777666----------------------|
E|---------------4--------------/---------------------77--------------------|




1:00----------------------------1:20---------------------------------------1:42
               4X                            4X
e|--------------------------------------------------------------------------|
B|--------------------------------------------------------------------------|
G|--4--------9-----------------------------11---------9---------------------|
D|--4---6----9------------------------9----11----6----9---------------------|
A|-2----6---7-------------------------9---9------6---7----------------------|
E|-----4-----------------------------7----------4---------------------------|




1:43----------------------------1:50----------------1:58-------------------2:10

e|--------------------------------------------------------------------------|
B|--------------------------------------------------------------------------|
G|----4----6----9----11----------998----8-----------------------------------|
D|----4----6----9----11--------------9----9---------------9-----------------|
A|---2----4----7----9-------------------------------777666----777666--------|
E|------------------------------------------------------------------77------|

      guitar 1                  guitar2               guitar3
(TBR only has 2 guitar on the cd there is an extra guitar riff recorded)


The song ends in B chord


| /  slide up
| \  slide down
| h  hammer-on
| p  pull-off
| ~  vibrato
| +  harmonic
| x  Mute note
            
Submit corrections

comments powered by Disqus
↑ Back to top | Teenage Bottlerocket Tabs for The Jerk. Lyrics for acoustic guitar and electric guitar. 1 Tablatures and chords are parodies/interpretations of the original songs. You may use it for private study, scholarship, research or language learning purposes only