» » »

Teenage Bottlerocket, The Jerk Bass tabs (ver.1)

Artists:  A B C D E F G H I J K L M N O P Q R S T U V W X Y Z # 

The Jerk Bass tabs (ver.1)

Teenage Bottlerocket Tabs
 Rating:
4.2/5 (5 votes)
The Jerk lessons Tabs too difficult? Try these video lessons and learn fast
                -------------------------------------------------------------------------------
-------------------------------------------------------------------------------


Tuning: Standard


Main

G|---------------------------------------|
D|---------------------------------------|
A|-----------4-444444----------7-777777--|
E|--7-777777----------4-444444-----------|

Verse

G|--------------------------------------|
D|--------------------------------------|
A|----------------------------7-777777--|
E|--7-77777777777777-4-444444-----------|

Chorus

G|---------------------------------------|
D|---------------------------------------|
A|-----------9-999999----------7-777777--|
E|--7-777777----------4-444444-----------|

Outro

G|---------------------------------------|
D|---------------------------------------|
A|--------------------7-777777-9-999999--|
E|--7-777777-9-999999--------------------|

Main X2
Verse X4
Chorus X4
Main X2
Verse X4
Chorus X4
Outro X5

| /  slide up
| \  slide down
| h  hammer-on
| p  pull-off
| ~  vibrato
| +  harmonic
| x  Mute note
===============================================================================
            
Submit corrections

comments powered by Disqus
↑ Back to top | Teenage Bottlerocket Bass for The Jerk. Lyrics for acoustic guitar and electric guitar. Tablatures and chords are parodies/interpretations of the original songs. You may use it for private study, scholarship, research or language learning purposes only