>
 >
Smokescreen

Smokescreen Guitar Tabs

Ted Nugent - Smokescreen chords, tabs, tablatures, lyrics

Guitar lessons | Add/correct | Request | Top 50 tabs Artists:  A B C D E F G H I J K L M N O P Q R S T U V W X Y Z 0-9

Smokescreen Guitar Tabs – Ted Nugent

CD, Sheet music, Poster

Do you like Smokescreen? Share with your friends now
Tabs
Smokescreen by Ted Nugent
(standard tuning)

 h   hammer on      /   slide up   
 p   pull off       \   slide down       
 b   bend           *   pinch harmonic 
 pb  pre bend       %   natural harmonic
 ra  rake           x   dead note      
 

Intro
|---------------------------------------------------------------|
|---------------------------------------------------------------|
|-5-----------5--7--7b8b7--5----------5-------------------------|
|-5---7-------5--7--7b8b7--5---7p5----5--7-----7--5-------------|
|-------0--0-----------------------7-------0--0------7--5-------|
|----------------------------------------------------------8--5-|


|---------------------------------------------------------------|
|---------------------------------------------------------------|
|-5-----------5--7--7b8b7--5----------5-------------------------|
|-5---7-------5--7--7b8b7--5---7p5----5--7-----7--5-------------|
|-------0--0-----------------------7-------0--0------7--5-------|
|----------------------------------------------------------8----|

                                                                       
|---------------------------------------------------------------|
|---------------------------------------------------------------|
|-5-----------5--7--7b8b7--5----------5-------------------------|
|-5---7-------5--7--7b8b7--5---7p5----5--7-----7*-5-------------|
|-------0--0-----------------------7-------0--0------7--5-------|
|----------------------------------------------------------8--5-|
    That little bit with guitar 2 fades in here ^

(0:16) Guitar 2
|----------------------------------------------------------|
|--11p10p9-11p10p9-11p10p9-11p10p9-11p10p9-11p10p9-11p10p9-|
|----------------------------------------------------------|
|----------------------------------------------------------|
|----------------------------------------------------------|
|----------------------------------------------------------|
This part keep going until I say so. Meanwhile, guitar 1 plays...

|---------------------------------------------------------------|
|---------------------------------------------------------------|
|-5-----------5--7--7b8b7--5----------5-------------------------|
|-5---7-------5--7--7b8b7--5---7p5----5--7-----7-7-7-7-7--------|
|-------0--0-----------------------7-------0--------------------|
|---------------------------------------------------------------|

guitar 2 stops with that

Chorus
Guitar 1 (0:22)
|---------------------------------------------------------------|
|-------------------------------------5-----8b-8pb-8--5---------|
|-5-----------5--7--7*b8b7--5---------5-----------------7--5b---|
|-5---7------------------------7p5-------7--------------------7-|
|-------0--0-----------------------7----------------------------|
|---------------------------------------------------------------|
2xs

Guitar 2 (0:22)
|---------------------------------------------------------------|
|---------------------------------------------------------------|
|-5-----------5--7--7b8b7--5----------5-------------------------|
|-5---7-------5--7--7b8b7--5---7p5----5--7-----7--5-------------|
|-------0--0-----------------------7-------0--0------7--5-------|
|----------------------------------------------------------8--5-|
2 times


Verse 1
Guitar 1 (0:33) 
|-----------------------------|---------------------------------|
|-----------------------------|---------------------------------|
|---------5--4----------4--5--|------5--4-----------------------|
|-----------------------------|---------------7--5--------------|
|-----------------------------|---------------------7--5--------|
|-----------------------------|---------------------------8-7-5-|
3 times

Guitar 2 (0:33)
|-----------------------------|---------------------------------|
|-----------------------------|---------------------------------|
|-2--------------2------------|-2----------2--------------------|
|-2--------------2------------|-2----------2--------------------|
|-0--------------0------------|-0----------0--------------------|
|-----------------------------|---------------------------------|
3 times



Chorus


Verse 2
Guitar 1 (1:06) 
|--------------------------------------------------------------=
|--------------------------------------------------------------=
|---------4--5----------5--4----------4--5--------5h7p5-4------=
|--------------------------------------------------------------=
|--------------------------------------------------------------=
|--------------------------------------------------------------=


=---------------------------------------------------------------|
=---------------------------------------------------------------|
=--------4--5---------5--4---------4--5-------------------------|
=---------------------------------------------7--5--------------|
=---------------------------------------------------7--5--------|
=---------------------------------------------------------8-7-5-|


Guitar 2 (1:06)
|-----------------------------|---------------------------------|
|-----------------------------|------------5-5-5-5-5-5-5--------|
|-2--------------2------------|-2----------7b7b7b7b7b7b7b-------|
|-2--------------2------------|-2-------------------------------|
|-0--------------0------------|-0-------------------------------|
|-----------------------------|---------------------------------|
3 times


Chorus


Solo
Guitar 1 (1:38)
|----------------------------------------------------------=
|----8b10----------------------8b10-(10)b8--8b10-(10)b8~~--=
|----------------------------------------------------------=
|----------------------------------------------------------=
|----------------------------------------------------------=
|----------------------------------------------------------=

Guitar 2 (1:38)
|----------6b8---6b8--6pb-6pb------------------------------=
|----------------------------------------------------------=
|--2-------------------------------------------------------=
|--2-------------------------------------------------------=
|--0-------------------------------------------------------=
|----------------------------------------------------------=



Guitar 1 (1:49)
=----------------------------------------------------------=
=----------------------------/13-12------------------------=
=---/12~--/14----------/12~---------14~----/12~--/14-------=
=-------------14~-------------------------------------14~--=
=----------------------------------------------------------=
=----------------------------------------------------------=

Guitar 2 (1:49)
=----------------------------------------------------------=
=----------------------------------------------------------=
=----------------------------/5~-4-------------------------=
=---/5~---/7------------/5----------7~-----/5~---/7--------=
=-------------7~--------------------------------------7~---=
=----------------------------------------------------------=



Guitar 1 (2:05)
=---------------------------------------------------------------=
=-/13--12-------------------------------------------------------=
=----------12--\9--/14\-----9b12--9b12~---9b12---7-9~-----------=
=---------------------------------------------------------------=
=---------------------------------------------------------------=
=---------------------------------------------------------------=

Guitar 2 (2:05)
=---------------------------------------------------------------=
=---------------------------------------------------------------=
=---------------------------------------------------------------=
=-/5--4---------------------------------------------------------=
=--------5---\2---/7\----7-7-7-7-------------------7-7-7-5-7----=
=---------------------------------------------------------------=


Guitar 1 (2:16)
=-----------------------------------------------------=
=------------------------------12---------------------=
=--9b12---9b12-----------12h14---12--14---14b17-------=
=-----------------12h14------------------------14b17--=
=-----------------------------------------------------=
=-----------------------------------------------------=

Guitar 2 stops for a while

Guitar 1
=---------------------------------------------=
=--------------13p12--------------------------=
=--------12h14------12~-12/14------14b17b-11--=
=--12h14--------------------------------------=
=---------------------------------------------=
=---------------------------------------------=


=---------------------------------------------------------12----=
=----------13p12--13p12--------------------------12h13/15-------=
=---11h13----------------12--12/17\-14~----11h12----------------=
=---------------------------------------------------------------=
=---------------------------------------------------------------=
=---------------------------------------------------------------=

(2:26)
=---------------------------------------------------------------=
=--15--15b17b15--12----12b14b12---------------------------------=
=------------------------------14~--12-14-12----12/17-----------=
=--------------------------------------------14-----------------=
=---------------------------------------------------------------=
=---------------------------------------------------------------=


(2:31)
=--15b17pb17p12---15b17---|-------------------|--------------|--=
=--------------13---------|--12--13--12-------|--7--8--7-----|--=
=-------------------------|--12--12--12--12~--|--7--7--7--7--|--=
=-------------------------|--------------12~--|-----------7--|--=
=-------------------------|-------------------|--------------|--=
=-------------------------|-------------------|--------------|--=
                            3 times             3 times
                                      
=---------------------------------------------------------------=
=--12--13--12-------7--8--7------12--13--12-------7--8--7-------=
=--12--12--12--12---7--7--7--7---12--12--12--12---7--7--7--7----=
=--------------12------------7---------------12------------7----=
=---------------------------------------------------------------=
=---------------------------------------------------------------=


=---------------------------------------------------------------=
=--12--13--12----12h13p12----12h13p12----12h13p12----12h13p12---=
=--12--12--12----12------14--12------14--12------14--12------14-=
=---------------------------------------------------------------=
=---------------------------------------------------------------=
=---------------------------------------------------------------=


=-----------------12---12-------------------------12--12--12----=
=--12h13p12--15b--15b--15b-------------10--13/15--15b-15b-15b---=
=--12----------------------10----10~----------------------------=
=-----------------------------12--------------------------------=
=---------------------------------------------------------------=
=---------------------------------------------------------------=


=-------------------------------12--------------12---=
=--------------------10--13/15--15b------13/15--15b--=
=----------------------------------------------------=
=--10----10--12--10~-----------------10--------------=
=-----12---------------------------------------------=
=----------------------------------------------------=


=---------------------------------------------------------------=
=-------------------------------------------------12h13p12------=
=-----------------------------------12/14--14/17-----------14---=
=------------------------14--14/17------------------------------=
=--15---12-12--12h15-12-----------------------------------------=
=---------------------------------------------------------------=

                        (3:05)                                
=--12--14--15---15b17--|-----------------------------------=
=----------------------|-----------------------------------=
=----------------------|--3b5*b3---------------------6b8~--=
=----------------------|-----------------------------------=
=----------------------|----------2~---3~------------------=
=----------------------|-------------------2--3--5~--------=
hold that 15b17 for like 10 years


=-----------------------------------5------------------------=
=-----------------------------------5------------------------=
=-----------------------------6b8~--5--5--4--5--5p4---4------=
=-------------2----5/7~-----------------------------7----7---=
=--2----3/5--------------------------------------------------=
=------------------------------------------------------------=



=---------------------------------------5----------|-----------|=
=---------------------------------5--8----8p5----5-|-5h7h8p7p5-|=
=-----------5--4------5p4---------------------7----|-----------|=
=--5--5h7~-------5--------5--5/7~------------------|-----------|=
=--------------------------------------------------|-----------|=
=--------------------------------------------------|-----------|=
                                              do that^ a ton of times

Guitar 1 (3:28)
=---------------------------------------------------------------=
=--10b13-10--10b12--10---13--12-10------------------------------=
=----------------------------------12--9--10b13-10--10b12--10---=
=---------------------------------------------------------------=
=---------------------------------------------------------------=
=---------------------------------------------------------------=

Guitar 2 is back from rythm (3:28)
=---------------------------------------------------------------=
=---------------------------------------------------------------=
=---------------------------------------------------------------=
=--7b10-7---7b9--5--10--9-7----------7b10-7---7b9--5------------=
=----------------------------10--7------------------------------=
=---------------------------------------------------------------=

Guitar 1 (3:36)
=--------------------------------------------|
=--5h8p5--5----------------------------------|
=-------7---7b9~b7p5-------------------------|
=--------------------7---5-------------------|
=---------------------------7---5---3--------|
=--------------------------------------3b5~--|
Uh... I think that might be right... it was really fast


verse 1

chorus

verse 2

chorus


|---------------------------------------------------------------|
|---------------------------------------------------------------|
|-5-----------5--7--7b8b7--5----------5-------------------------|
|-5---7-------5--7--7b8b7--5---7p5----5--7-----7--5-------------|
|-------0--0-----------------------7-------0--0------7--5-------|
|----------------------------------------------------------8--5-|


|---------------------------------------------------------------|
|---------------------------------------------------------------|
|-5-----------5--7--7b8b7--5----------5-------------------------|
|-5---7-------5--7--7b8b7--5---7p5----5--7-----7--5-------------|
|-------0--0-----------------------7-------0--0------7--5-------|
|----------------------------------------------------------8--5-|

Thats it... if you don't like it, tab it yourself... or if its 
account.





Comments


Popular Ted Nugent tabs & chords
Kiss My Ass Bass Tabs
Fred Bear Chords
Broadside Intro Tabs
Cat Scratch Fever 4 Tabs
Cat Scratch Fever Intro Tabs
Great White Buffalo 1 Tabs
Take It Or Leave It Tabs
Wango Tango Tabs
Yank Me, Crank Me Tabs
Pony Express Ukulele


Song lyrics



↑ Back to top | Tablatures and chords are parodies/interpretations of the original songs. You may use it for private study, scholarship, research or language learning purposes only
© 2014 AZChords.com Contact us | Privacy policy | DMCA | Add/correct tabs | Request tabs | Top 50 tabs