» » »

Free For All Bass tabs (ver.1)

Artists:  A B C D E F G H I J K L M N O P Q R S T U V W X Y Z # 

Free For All Bass tabs (ver.1)

Ted Nugent
Rating:
0/5 (0 votes)

Tabs too difficult? Try these video lessons and learn fast.
                INTRO
G--------|--------------------|
D--------|---------------5-6--|
A-guitar-|---------5-6-7------| X1
E--------|-4-5-6-7------------|

VERSE (main riff)
G-------------6-7-|
D-----------------|
A-777-777-777-----|
E-----------------|


CHORUS"...It's a free for all"
G-----|-------------------------------------------------|
D-----|-------------------------------------------------|
A-rest|-55555555-77--55555555-77--55555555-77-----------| (back to main riff)
E-----|----------------------------------------77777777-|

SOLO            (immediately after solo
G------------6-7|------------------|
D---------------|--------------5-6-|
A-777-777-777---|---------5-6-7----|
E---------------|-4-5-6-7----------|

Not to hard of a song, just listen to it for timing
            
Tabs too difficult? Try these video lessons and learn fast.




comments powered by Disqus
↑ Back to top | Tablatures and chords are parodies/interpretations of the original songs. You may use it for private study, scholarship, research or language learning purposes only