» » »

Ted Nugent, Free Flight Tabs (ver.1)

Artists:  A B C D E F G H I J K L M N O P Q R S T U V W X Y Z # 

Free Flight Tabs (ver.1)

Ted Nugent Tabs
Rating:
0/5 (0 votes)
Hard to play? Try these video lessons and learn fast.
                --------------------------------------------------------------------------
--------------------------------------------------------------------------

Tuning: Standard


Intro/Verse Melody :

E-------------------------------------------------------------------|
B-13-9-11-11/13-----------------------------------------------------|
G---------------8~~--10-10-10/11-10-8-------------------------------|
D-------------------------------------10-8--------------------------|
A-------------------------------------------------------------------|
E-------------------------------------------------------------------|


E-------------------------------------------------------------------|
B-13-9-11-11/13-----------------------------------------------------|
G---------------8~~--2/10-10-10-11-10-11/13~~-----------------------|
D-------------------------------------------------------------------|
A-------------------------------------------------------------------|
E-------------------------------------------------------------------|

Chorus Melody :

E------------8-9-11-------------------------------------------------|
B----------9--------9~~--9h11p9-------------------------------------|
G--11-8-11----------------------11-8--------------------------------|
D------------------------------------11-10--------------------------|
A-------------------------------------------------------------------|
E-------------------------------------------------------------------|


E------------8-9-11----------14p13-14p13--------16p15-16p15---------|
B----------9--------9~~---14-------------14--16-------------16------|
G--11-8-11----------------------------------------------------------|
D-------------------------------------------------------------------|
A-------------------------------------------------------------------|
E-------------------------------------------------------------------|
            

comments powered by Disqus
↑ Back to top | Ted Nugent Tabs for Free Flight. Lyrics for acoustic guitar and electric guitar. Tablatures and chords are parodies/interpretations of the original songs. You may use it for private study, scholarship, research or language learning purposes only