>
 >
Riot Maker

Riot Maker Guitar Tabs

Tech N9ne - Riot Maker chords, tabs, tablatures, lyrics

Guitar lessons | Add/correct | Request | Top 50 tabs Artists:  A B C D E F G H I J K L M N O P Q R S T U V W X Y Z 0-9

Riot Maker Guitar Tabs – Tech N9ne

CD, Sheet music, Poster

Do you like Riot Maker? Share with your friends now
Tabs
-------------------------------------------------------------------------------
                          Riot Maker/Enjoy - Tech N9ne
-------------------------------------------------------------------------------
PLEASE RATE!

Tuning: Standard (The FIRST Standard tuned version and full song)

(Intro)
"This one right here's for the Riotmaker's..."

e|---------------------------------------------------------------------------|
B|---------------------------------------------------------------------------|
G|---------------------------------------------------------------------------|
D|-12-12-12--12-12---12-12-12-12--12-12---12-12-12-12--12-12---12-12-12---15-|
A|-----------------------------------------------------------------------x15-|
E|---------------------------------------------------------------------------|

(Chorus )

E|----------------------------| \    /
B|----------------------------|  \  /
G|----------------------------|   \/  
D|0-2-3-0--3---5-7-8-5--8-7-3-|   /\   2  
A|----------------------------|  /  \     
D|----------------------------| /    \

(Main Riff)
"This is the moment for writers and thugs..."

E|---------------------------------------------------------|
B|---------------------------------------------------------|
G|---------------------------------------------------------|
D|0-0-0-2-3-3-0-0-0-0-3----5-5-5-7-8-8-5-5-5-5-8-8-7-7-3-3-|
A|---------------------------------------------------------|
D|---------------------------------------------------------|

After playing that a while, comes a sort of odd riff there are 2 versions.
(Riff 2 =Guitar 1=)
"I Don't know why they keep pumpin' its something..."

e|-------------------------------------------------------|
B|-------------------------------------------------------|
G|-------------------------------------------------------|
D|-----------12-----12-----12----------------------------|
A|(12-12-12)---12-12--12-12---12-12-12-12-10-12-13-12-10-|
E|-------------------------------------------------------|

e|-------------------------------------------| \    /
B|-------------------------------------------|  \  /
G|-------------------------------------------|   \/
D|-------------------------------------------|   /\   2
A|-13-10-10-13-10-10-12-13-12-10-12-13-12-10-|  /  \
E|-------------------------------------------| /    \

Then it goes up a few steps, repeat this twice also

e|--------------------------------------------|
B|--------------------------------------------|
G|-19-----19-----19---------------------------|
D|---19-19--19-19--19-19-19-19-17-19-20-19-17-|
A|--------------------------------------------|
E|--------------------------------------------|

e|----------------------------------------------| \    /
B|----------------------------------------------|  \  /
G|----------------------------------------------|   \/
D|----------------------------------------------|   /\   2
A|-20-17-17-17-20-17-17-19-20-19-17-19-20-19-17-|  /  \
E|----------------------------------------------| /    \

Or...
(Riff 2 =Guitar 2=)
"I Don't know why they keep pumpin' its something..."

e|-------------------------------------------------|
B|-------------------------------------------------|
G|-------------------------------------------------|
D|-12-12-12-12-12-12-12-12-12-12-12-12-12-12-12-12-|
A|-------------------------------------------------|
E|-------------------------------------------------|

e|-------------------------------------------------| \    /
B|-------------------------------------------------|  \  /
G|-------------------------------------------------|   \/
D|-5--5--5--5--5--5--5--5--7--7--7--7--7--7--7--7--|   /\   4
A|-------------------------------------------------|  /  \
E|-------------------------------------------------| /    \

The song repeats to chorus. Just listen to the song.
This is my first tab of many to come!
Again, please rate 5 stars!





Comments


Popular Tech N9ne tabs & chords
Einstein Bass Tabs
This Ring Bass Tabs
Am I A Psycho Tabs
Dysfunctional Intro Tabs
Einstein Tabs
Girl Crazy Tabs
I Am Everything Tabs
Little Pills Tabs
Riot Maker Intro Tabs
This Ring Tabs


Song lyrics



↑ Back to top | Tablatures and chords are parodies/interpretations of the original songs. You may use it for private study, scholarship, research or language learning purposes only
© 2014 AZChords.com Contact us | Privacy policy | DMCA | Add/correct tabs | Request tabs | Top 50 tabs