» » »

Tears For Fears, Head Over Heels Bass tabs (ver.1)

Artists:  A B C D E F G H I J K L M N O P Q R S T U V W X Y Z # 

Head Over Heels Bass tabs (ver.1)

Tears For Fears Tabs
 Rating:
3.7/5 (6 votes)
Head Over Heels lessons Tabs too difficult? Try these video lessons and learn fast
1
                Tears For Fears - Head Over Heels
Songs from the Big Chair
Roland Orzabal/Curt Smith

Standard Tuning   x= mute note    /= slide to note

Verse
G|----------|---4--002-|----------|----------|
D|------2---|-----2----|------2---|-5-4-220--|
A|-0-2-4--0-|-3--------|-0-2-4--0-|--------3-| x4
E|----------|----------|----------|----------|

Chorus
G|----------|----------|----------|----------|
D|------554-|-------02-|-----54---|----------|
A|----------|----023---|-------52-|----------|
E|-3--------|-0-3------|-3--------|-0---00---|

G|----------|----------|----------|----------|
D|-----54---|-------02-|-0--------|----------| (let the D ring over
A|-------x2-|----023---|-5--------|----------|     the last 2 bars)
E|-3--------|-0-3------|----------|----------|

Synth Interlude/Pre-Verse
G|----------|---4--002-|----------|--------2-|
D|------2---|-----2----|------2---|--5-4-2---| (last bar is offbeat)
A|-0-2-4--0-|-3--------|-0-2-4--0-|----------| 
E|----------|----------|----------|----------|

Verse
G|----------|---4--002-|----------|----------|
D|------2---|-----2----|------2---|-5-4-220--|
A|-0-2-4--0-|-3--------|-0-2-4--0-|----------| x4
E|----------|----------|----------|----------|

Chorus
G|----------|----------|----------|----------|
D|------554-|-------02-|-----54---|----------|
A|----------|----023---|-------52-|----------|
E|-3--------|-0-3------|-3--------|-0---00---|

G|----------|----------|----------|----------|
D|-----54---|-------02-|-0--------|----------| (let the D ring over
A|-------x2-|----023---|-5--------|----------|     the last 2 bars)
E|-3--------|-0-3------|----------|----------|

Outro
G|------1211----|------1211----|------1211----|------1211----|
D|---5/-----10/-|---5/-----10/-|---7/-----10/-|---7/-----10/-|
A|-3------------|-3------------|-5------------|-5------------| x8
E|--------------|--------------|--------------|--------------|

G|---|
D|---|
A|-0-|
E|---|
            
Submit corrections

comments powered by Disqus
↑ Back to top | Tears For Fears Bass for Head Over Heels. Lyrics for acoustic guitar and electric guitar. 1 Tablatures and chords are parodies/interpretations of the original songs. You may use it for private study, scholarship, research or language learning purposes only