>
 >
Dont Try Suicide

Dont Try Suicide Guitar Tabs

Team Dresch - Dont Try Suicide chords, tabs, tablatures, lyrics

Guitar lessons | Add/correct | Request | Top 50 tabs Artists:  A B C D E F G H I J K L M N O P Q R S T U V W X Y Z 0-9

Dont Try Suicide Guitar Tabs – Team Dresch

CD, Sheet music, Poster

Do you like Dont Try Suicide? Share with your friends now
Tabs
 4/4
  Gtr I
  E E E E E E E E   +E  E E Q E E E    E E E E E E E E   +E  E E Q  E E E
|-----------------|-----------------|------------------|-------------------|
|-7-----------7-8-|-(8)---8-7---7-8S|=10S8-7-8-----7-8-|-(8)---8-7----7-8S=|
|---7-7-7-7-------|-----7-----7-----|----------7-------|-----7------7------|
|-----------9-----|-----------------|------------9-----|-------------------|
|-----------------|-----------------|------------------|-------------------|
|-----------------|-----------------|------------------|-------------------|


   Q   Q E E E E   +E  E E Q  E E E    E E E E E E E E   +E  E E Q  E E E
|----------------|------------------|------------------|--------------------|
|-10--10-----7-8-|-(8)---8-7----7-8S|=10S8-7-8-----7-8-|-(8)---8-7----7-8S==|
|--------7-------|-----7------7-----|----------7-------|-----7------7-------|
|----------9-----|------------------|------------9-----|--------------------|
|----------------|------------------|------------------|--------------------|
|----------------|------------------|------------------|--------------------|


   Q  E  E  Q  E  E    +H   +E   Q  E    E  E  E  E  E  E  E  E
|----------10-------|-----------------|-------------10----------|
|-10----------------|-----------12-13-|-13-12-------------12----|
|----11-12----11-12-|-(12)-(12)-------|-------11-12----12----12S|
|-------------------|-----------------|-------------------------|
|-------------------|-----------------|-------------------------|
|-------------------|-----------------|-------------------------|


   Q.  E  E  E  Q     E  E  E  E  E  E  E  E
|------------------|----------------15-15-15--|
|--------------12--|-13-------12-12-----------|
|-11--11-11-11-----|----11-12-----------------|
|------------------|--------------------------|
|------------------|--------------------------|
|------------------|--------------------------|


   Q   E  Q   E  E  E    E  E  E  E  E  E  E  E
|---------------15----|-------------------------|
|-12--12-13--13----13p|=12-12-12----------------|
|---------------------|----------12-12-12-11-11-|
|---------------------|-------------------------|
|---------------------|-------------------------|
|---------------------|-------------------------|


   +Q    E  Q.   Q    E E E E E E E E
|-------------------|-----------------|
|-------------------|-------------7-8-|
|-(11)--------------|-5S7-7-7-7-------|
|-------12-10----9--|-----------9-----|
|-------------------|-----------------|
|-------------------|-----------------|


  +E  E E Q  E E E    E E E E E E E E   +E  E E Q  E E E    Q   Q  E E E E
|------------------|------------------|------------------|-----------------|
|-(8)---8-7----7-8S|=10-8-7-8-----7-8-|-(8)---8-7----7-8S|=10--10------7-8-|
|-----7------7-----|----------7-------|-----7------7-----|---------7-------|
|------------------|------------9-----|------------------|-----------9-----|
|------------------|------------------|------------------|-----------------|
|------------------|------------------|------------------|-----------------|


  +E  E E Q  E E E    Q  E E E E E E   +E  E E Q  E E E   +E  E E E Q.   E
|------------------|-----------------|------------------|------------------|
|-(8)---8-7----7-8S|=10--7-8-----7-8-|-(8)---8-7----7-8-|-(8)-------7------|
|-----7------7-----|---------7-------|-----7------7-----|-----4-5-7------7-|
|------------------|-----------9-----|------------------|------------------|
|------------------|-----------------|------------------|------------------|
|------------------|-----------------|------------------|------------------|


  +W           +H     E E  E E   +W           +H     Q.   E
|------------|-----------------|------------|---------------|
|------------|--------7--------|------------|--------7------|
|-(7)--------|-(7)-----------7-|-(7)--------|-(7)---------7-|
|------------|----------9-10-9-|------------|---------------|
|------------|-----------------|------------|---------------|
|------------|-----------------|------------|---------------|


  +W           +H     Q.   E   +W           +W
|------------|---------------|------------|--------*|
|------------|--------7------|------------|--------*|
|-(7)--------|-(7)---------7-|-(7)--------|-(7)----*|
|------------|---------------|------------|--------*|
|------------|---------------|------------|--------*|
|------------|---------------|------------|--------*|





Comments


Popular Team Dresch tabs & chords
Freewheel Chords
107 Tabs
Don't Try Suicide Tabs
Hate The Christian Right Tabs
Take On Me Tabs
Take On Me 2 Tabs
To The Enemies Of Political Rock Tabs
Yes I Am Too, But Who Am I Really? Tabs
Freewheel Ukulele


Song lyrics



↑ Back to top | Tablatures and chords are parodies/interpretations of the original songs. You may use it for private study, scholarship, research or language learning purposes only
© 2014 AZChords.com Contact us | Privacy policy | DMCA | Add/correct tabs | Request tabs | Top 50 tabs