>
 >
Enchanted

Enchanted Guitar Tabs

Taylor Swift - Enchanted chords, tabs, tablatures, lyrics

Guitar lessons | Add/correct | Request | Top 50 tabs Artists:  A B C D E F G H I J K L M N O P Q R S T U V W X Y Z 0-9

Enchanted Guitar Tabs – Taylor Swift

CD, Sheet music, Poster

Do you like Enchanted? Share with your friends now
Bass TabsChordsChords v2Chords v3Chords v4Chords v5Chords v6Chords v7Chords v8TabsTabs v2Tabs v3Tabs v4Tabs v5Ukulele
Hi there!  I was just messin' around and came up with
this picking pattern while playing Enchanted.  Now I can't
stop picking it throughout!  I combined the chords and tab
so that you can choose to follow the album precisely or just
pick throughout.  It's super easy (I wouldn't be able to do
it if it wasn't!lol!) And it's a great one for beginners to 
learn how to pick:)  Any beginner can do this!!

       **************Have Fun & Rate!!**************
                         Thanks:)


Standard Tuning w/
Capo on 1

(Palm mute, pick or strum...It's your choice!!)

-Intro- (Same picking pattern as tab below)
G Bm/G Cadd9 G


Verse 1)

       G                  Bm/G                Cadd9                 G        
e|-------------------------------------------------------------------------------------|
B|-------3--------3----------3--------3----------3----------3----------3---------3-----|
G|-----0---0----0---0------0---0----0---0------0---0------0---0------0---0-----0---0---|x2
D|---0--------0----------0--------0----------2----------2----------0---------0---------|
A|---2--------2----------2--------2----------3----------3----------2---------2---------|
E|---3--------3----------2--------2--------------------------------3---------3---------|

G                          
There I was again tonight 
Bm/G
Forcing laughter, faking smiles
Cadd9                       G
Same old tired, lonely place
G                    Bm/G
Walls of insincerity Shifiting eyes and vancancy 
Cadd9                        G
Vanished when I saw your face    All I can say is it..
                    

        Cadd9               Em7                    Dsus4  
e|-------------------------------------------------------------------------------------|
B|--------3--------3---------3----------3-----------3--------3--------3---------3------|
G|------0---0----0---0-----0---0------0---0-------2---2----2---2----2---2-----2---2----|
D|----2--------2---------2----------2-----------0--------0--------0---------0----------|
A|----3--------3---------2----------2-----------0--------0--------0---------0----------|
E|-------------------------------------------------------------------------------------|
  
  Cadd9               Em7     Dsus4
..Was enchanting to meet yo--ouu


Verse 2)

        G                  Bm/G               Cadd9                 G        
e|-------------------------------------------------------------------------------------|
B|-------3--------3----------3--------3----------3----------3----------3---------3-----|
G|-----0---0----0---0------0---0----0---0------0---0------0---0------0---0-----0---0---|x2
D|---0--------0----------0--------0----------2----------2----------0---------0---------|
A|---2--------2----------2--------2----------3----------3----------2---------2---------|
E|---3--------3----------2--------2--------------------------------3---------3---------|

G
Your eyes whispered "have we met?"
Em7                                                     
Across the room your silhouette 
Cadd9                        G
Starts to make it's way to me
    G                            
The playful conversation starts 
Bm/G
Counter all your quick remarks 
     Cadd9                   G
Like passing notes in secrecy   And it...


        Cadd9               Em7                    Dsus4  
e|-------------------------------------------------------------------------------------|
B|-------3--------3----------3---------3-------------3--------3---------3---------3----|
G|-----0---0----0---0------0---0-----0---0---------2---2----2---2-----2---2-----2---2--|
D|---2--------2---------2----------2-------------0--------0---------0---------0--------|x2
A|---3--------3---------2----------2-------------0--------0---------0---------0--------|
E|-------------------------------------------------------------------------------------|
  
  Cadd9               Em7    Dsus4
..Was enchanting to meet yo--ouu     All I can say is I..
                   
  Cadd9              Em7    Dsus4
..Was enchanted to meet yo--ouu



Chorus)

      Cadd9               G         Dsus4     
e|---------------------------------------------|
B|--------3-------3---------3-----------3------|
G|------0---0---0---0-----0---0-------2---2----| x3
D|---2--------2---------0-----------0----------|
A|---3--------3---------2-----------0----------|
E|----------------------3----------------------|


Cadd9         G          Dsus4            Cadd9
This night is sparkling, don't you let it go
          G                Dsus4       Cadd9
I'm wonderstruck, blushing all the way home
              G    Dsus4            
I'll spend forever wondering if you.. 

        Cadd9            Em7        Dsus4      G
e|-------------------------------------------------------------------------------------|
B|--------3-------3---------3----------3----------3----------3---------3--------3------|
G|------0---0---0---0-----0---0------2---2------0---0------0---0-----0---0----0---0----| 
D|---2--------2---------2----------0----------0---------0----------0--------0----------|
A|---3--------3---------2----------0----------2---------2----------2--------2----------|
E|--------------------------------------------3---------3----------3--------3----------|

  Cadd9                       Em7  Dsus4  G
..Knew,  I was enchanted to meet yo----ooouu



Verse 3)

         G                 Bm/G               Cadd9                 G        
e|-------------------------------------------------------------------------------------|
B|-------3--------3----------3--------3----------3----------3----------3---------3-----|
G|-----0---0----0---0------0---0----0---0------0---0------0---0------0---0-----0---0---|x2
D|---0--------0----------0--------0----------2----------2----------0---------0---------|
A|---2--------2----------2--------2----------3----------3----------2---------2---------|
E|---3--------3----------2--------2--------------------------------3---------3---------|
  

G                          
The lingering question kept me up 
Bm/G
Two am, who do you love?
  Cadd9                     G
I wonder till I'm wide awake
G                              
Now I'm pacing back and forth, 
Bm/G
Wishing you were at my door
    Cadd9                     G
I'd open up and you would say,    Hey it...


        Cadd9               Em7                    Dsus4  
e|-------------------------------------------------------------------------------------|
B|--------3-------3----------3----------3------------3--------3---------3---------3----|
G|------0---0---0---0------0---0------0---0--------2---2----2---2-----2---2-----2---2--|
D|--2---------2---------2----------2-------------0--------0---------0---------0--------|x2
A|--3---------3---------2----------2-------------0--------0---------0---------0--------|
E|-------------------------------------------------------------------------------------|
  
  Cadd9               Em7    Dsus4
..Was enchanting to meet yo--ouu     All I know is I..
                   
  Cadd9              Em7    Dsus4
..Was enchanted to meet yo--ouu


Chorus)

        Cadd9               G        Dsus4     
e|---------------------------------------------|
B|--------3-------3---------3-----------3------|
G|------0---0---0---0-----0---0-------2---2----| x3
D|---2--------2---------0-----------0----------|
A|---3--------3---------2-----------0----------|
E|----------------------3----------------------|


Cadd9         G          Dsus4            Cadd9
This night is sparkling, don't you let it go
          G                Dsus4       Cadd9
I'm wonderstruck, blushing all the way home
              G    Dsus4            
I'll spend forever wondering if you.. 

        Cadd9             Em7        Dsus4     
e|---------------------------------------------|
B|--------3-------3---------3----------3-------|
G|------0---0---0---0-----0---0------2---2-----| 
D|---2--------2---------2----------0-----------|
A|---3--------3---------2----------0-----------|
E|---------------------------------------------|

  Cadd9   Em7  Dsus4                    
..Kne---eww,  


        Cadd9             G         Dsus4     
e|---------------------------------------------|
B|--------3-------3---------3-----------3------|
G|------0---0---0---0-----0---0-------2---2----| x3
D|---2--------2---------0-----------0----------|
A|---3--------3---------2-----------0----------|
E|----------------------3----------------------|


Cadd9         G         Dsus4            Cadd9     
This night is flawless, don't you let it go
          G                Dsus4       Cadd9
I'm wonderstruck, dancing 'round all alone
              G    Dsus4            
I'll spend forever wondering if you.. 

        Cadd9             Em7         Dsus4     
e|---------------------------------------------|
B|--------3-------3---------3----------3-------|
G|------0---0---0---0-----0---0------2---2-----| 
D|---2--------2---------2----------0-----------|
A|---3--------3---------2----------0-----------|
E|---------------------------------------------|

  Cadd9                       Em7  Dsus4  G (right into solo)
..Knew,  I was enchanted to meet yo----ooouu


         G                 Bm/G               Cadd9                G        
e|-------------------------------------------------------------------------------------|
B|-------3--------3----------3--------3----------3----------3----------3---------3-----|
G|-----0---0----0---0------0---0----0---0------0---0------0---0------0---0-----0---0---| 
D|---0--------0----------0--------0----------2----------2----------0---------0---------|
A|---2--------2----------2--------2----------3----------3----------2---------2---------|
E|---3--------3----------2--------2--------------------------------3---------3---------|


G Bm/G Cadd9 G

         G                  Bm/G              Cadd9                Dsus4                    
e|--------------------------------------------------------------------------------------|
B|-------3--------3----------3--------3----------3----------3---------3--------3--------|
G|-----0---0----0---0------0---0----0---0------0---0------0---0-----2---2----2---2------| 
D|---0--------0----------0--------0----------2----------2---------0--------0------------|
A|---2--------2----------2--------2----------3----------3---------0--------0------------|
E|---3--------3----------2--------2-----------------------------------------------------|

 
G Bm/G Cadd9  Dsus4
              This is me praying that 


Bridge)

        Cadd9             Em7              
e|---------------------------------------------|
B|-------3-------3---------3-----------3-------|
G|-----2---0---0---0-----0---0-------0---0-----| x2
D|---0--------2---------2----------2-----------|
A|---0--------3---------2----------2-----------|
E|---------------------------------------------|


Cadd9                      Em7
This was the very first page
                         Cadd9
Not where the story line ends
                             Em7           
My thoughts will echo your name   Until I..


       Dsus4    Cadd9                 Em7       Dsus4   Cadd9       
e|------------------------------------------------------------------|
B|-------3---------3--------3-----------3---------3---------3-------|
G|-----2---2-----0---0----0---0-------0---0-----2---2-----0---0-----| 
D|---0---------2--------2-----------2---------0---------2-----------|
A|---0---------3--------3-----------2---------0---------3-----------|
E|------------------------------------------------------------------|

 
  Dsus4    Cadd9
..See you again
                           Em7* once            
These are the words I held back 
         Dsus4*      Cadd9*
As I was leaving too soon


        Cadd9             Em7       Dsus4     
e|---------------------------------------------|
B|--------3-------3---------3----------3-------|
G|------0---0---0---0-----0---0------2---2-----| 
D|---2--------2---------2----------0-----------|
A|---3--------3---------2----------0-----------|
E|---------------------------------------------|


(Cadd9)              Em7    Dsus4* (G -right into "Please...")
I was enchanted to meet yo--ou-oouu


       G                  Bm/G                Cadd9                 G        
e|-------------------------------------------------------------------------------------|
B|-------3--------3----------3--------3----------3----------3----------3---------3-----|
G|-----0---0----0---0------0---0----0---0------0---0------0---0------0---0-----0---0---|x2 
D|---0--------0----------0--------0----------2----------2----------0---------0---------|
A|---2--------2----------2--------2----------3----------3----------2---------2---------|
E|---3--------3----------2--------2--------------------------------3---------3---------|


G                            Bm/G
Please don't be in love with someone else
Cadd9                      G
Please don't have somebody waiting on you
G                            Bm/G
Please don't be in love with someone else
Cadd9                      G
Please don't have somebody waiting on you



Chorus)

       Cadd9              G         Dsus4     
e|---------------------------------------------|
B|--------3-------3---------3-----------3------|
G|------0---0---0---0-----0---0-------2---2----| x3
D|---2--------2---------0-----------0----------|
A|---3--------3---------2-----------0----------|
E|----------------------3----------------------|


Cadd9         G          Dsus4            Cadd9
This night is sparkling, don't you let it go
          G                Dsus4       Cadd9
I'm wonderstruck, blushing all the way home
              G    Dsus4            
I'll spend forever wondering if you.. 

      Cadd9              Em7         Dsus4     
e|---------------------------------------------|
B|--------3-------3---------3----------3-------|
G|------0---0---0---0-----0---0------2---2-----| 
D|---2--------2---------2----------0-----------|
A|---3--------3---------2----------0-----------|
E|---------------------------------------------|

  Cadd9   Em7  Dsus4                    
..Knee--eww,  


      Cadd9               G         Dsus4     
e|---------------------------------------------|
B|--------3-------3---------3-----------3------|
G|------0---0---0---0-----0---0-------2---2----| x3
D|---2--------2---------0-----------0----------|
A|---3--------3---------2-----------0----------|
E|----------------------3----------------------|


Cadd9         G         Dsus4            Cadd9     
This night is flawless, don't you let it go
          G                Dsus4       Cadd9
I'm wonderstruck, dancing 'round all alone
              G    Dsus4            
I'll spend forever wondering if you.. 

      Cadd9             Em7         Dsus4     
e|---------------------------------------------|
B|--------3-------3---------3----------3-------|
G|------0---0---0---0-----0---0------2---2-----| 
D|---2--------2---------2----------0-----------|
A|---3--------3---------2----------0-----------|
E|---------------------------------------------|

  Cadd9                       Em7   Dsus4   
..Knew,  I was enchanted to meet yo-ooouu



         G                  Bm/G                Cadd9              G        
e|-----------------------------------------------------------------------|
B|-------3--------3----------3--------3----------3----------3------------|
G|-----0---0----0---0------0---0----0---0------0---0------0---0----0-----| 
D|---0--------0----------0--------0----------2----------2----------0-----|
A|---2--------2----------2--------2----------3----------3----------2-----|
E|---3--------3----------2--------2--------------------------------3-----|


G                             Bm/G
Please don't be in love with someone else
Cadd9                      G* once
Please don't have somebody waiting on you



Have fun and RATE:)
cristy♥twilight





Comments


Popular Taylor Swift tabs & chords
Change (corrected Capo 1) Chords
Hey Stephen 3 Chords
Hey Stephen 6 Chords
Innocent 1 Chords
Long Live Chords
Ours Chords
The Way I Loved You 3 Chords
Im Only Me When Im With You 2 Tabs
Closest To A Cowboy Ukulele
Love Story Ukulele


Song lyrics



↑ Back to top | Tablatures and chords are parodies/interpretations of the original songs. You may use it for private study, scholarship, research or language learning purposes only
© 2014 AZChords.com Contact us | Privacy policy | DMCA | Add/correct tabs | Request tabs | Top 50 tabs