>
 >
Better Than Revenge 1

Better Than Revenge 1 Guitar Tabs

Taylor Swift - Better Than Revenge 1 chords, tabs, tablatures, lyrics

Guitar lessons | Add/correct | Request | Top 50 tabs Artists:  A B C D E F G H I J K L M N O P Q R S T U V W X Y Z 0-9

Better Than Revenge 1 Guitar Tabs – Taylor Swift

CD, Sheet music, Poster

Do you like Better Than Revenge 1? Share with your friends now
Bass TabsChordsChords v2Chords v3Chords v4Chords v5Chords v6TabsTabs v2Ukulele

  Tuning: standard

Intro

 Guitar 1 (0:04)

e|-----------------------------------|
B|-----------------------------------|
G|---4-------------7-----------------|
D|---4-x8---5------7-x8---7----------| x2
A|---2------5-x8---5------7-x8-------|
E|----------3-------------5----------|

 Guitar 2 (0:04)

e|----------------------------------------------------------|
B|------3-5h7p5------3-5h7p5------3-5h7p5---2-3-5-5/7-------|
G|---4------------0------------2----------------------------|
D|----------------------------------------------------------|
A|----------------------------------------------------------|
E|----------------------------------------------------------|

e|-------------------------------------------------------------|
B|------3-5h7p5------3-5h7p5------3-5h7p5---2--3p2p0-----------|
G|---4------------0------------2-------------------2h4---------|
D|-------------------------------------------------------------|
A|-------------------------------------------------------------|
E|-------------------------------------------------------------|


Verse 1

 Guitar 1  (Guitar 2 is idle) (0:17)

e|------------------------------------------------------------|
B|------------------------------------------------------------|
G|---4-------------7---------------4--------------------------|
D|---4-x8---5------7-x8---7--------4-x8---5-------7---7-------| x2
A|---2------5-x8---5------7-x8-----2------5-x8----7---7-------|
E|----------3-------------5---------------3-------5---5-------|

 ^ everything is palm muted except last 2 chords


Chorus

 Guitar 1 (Guitar 2 is either idle or playing the same thing) (0:45)

e|---------------------------------------------------------------|
B|---------------------------------------------------------------|
G|---4-------------7--------------4-------------7----------------|
D|---4-x8---5------7-x8---7-------4-x8---5------7-x8---7---------|
A|---2------5-x8---5------7-x8----2------5-x8---5------7-x8------|
E|----------3-------------5--------------3-------------5---------|

e|------------------------------------------------------------|
B|------------------------------------------------------------|
G|---4--------------------12-12-11-11-9-9-7---4---------------|
D|---4-x4---5------7------12-12-11-11-9-9-7---4---5---7-------|
A|---2------5-x4---7-x4---10-10--9--9-7-7-7---2---5---7-------|
E|----------3------5------------------------------3---5-------|


Post-chorus

 Guitar 1 (1:11)

e|-----------------------------------|
B|-----------------------------------|
G|---4-------------7-----------------|
D|---4-x8---5------7-x8---7----------|
A|---2------5-x8---5------7-x8-------|
E|----------3-------------5----------|

 Guitar 2 (1:11)

e|--------------------------------------------------5~-------|
B|------3-5h7p5------3-5h7p5------3-5h7p5---2-3-5-7----------|
G|---4------------0------------2-----------------------------|
D|-----------------------------------------------------------|
A|-----------------------------------------------------------|
E|-----------------------------------------------------------|


Verse 2

 Guitar 1 (1:18)

e|------------------------------------------------------------|
B|------------------------------------------------------------|
G|---4-------------7---------------4--------------------------|
D|---4-x8---5------7-x8---7--------4-x8---5-------7---7-------| x2
A|---2------5-x8---5------7-x8-----2------5-x8----7---7-------|
E|----------3-------------5---------------3-------5---5-------|

 ^ everything is palm muted except last 2 chords.  The second time through the 
first strum of each chord isn't palm muted.

 Guitar 2 (1:20)

e|---7-5~-----------5------------------------------------|
B|--------------------7-5-7------------------------------|
G|----------------------------------------------4~-------|
D|-------------------------------------------------------|
A|-------------------------------------------------------|
E|-------------------------------------------------------|

Chorus

 Guitar 1 (1:46)

e|---------------------------------------------------------------|
B|---------------------------------------------------------------|
G|---4-------------7--------------4-------------7----------------|
D|---4-x8---5------7-x8---7-------4-x8---5------7-x8---7---------|
A|---2------5-x8---5------7-x8----2------5-x8---5------7-x8------|
E|----------3-------------5--------------3-------------5---------|

e|------------------------------------------------------------------|
B|---------(7-8-7-5-3-Guitar 2)-------------------------------------|
G|---4--------------------------12-12-11-11-9-9-7---4---------------|
D|---4-x4---5------7------------12-12-11-11-9-9-7---4---5---7-------|
A|---2------5-x4---7-x4---------10-10--9--9-7-7-7---2---5---7-------|
E|----------3------5------------------------------------3---5-------|


Bridge

 Guitar 1 (2:12)

e|------------------------------------------------------------|
B|-----------------------------------------(palm muted)-------|
G|---------------4-------7-7-6-6---4--------7-----------------|
D|---5-------7---4---5---7-7-7-7---4---5----7-x8---7----------|
A|---5-x16---7---2---5---5-5-7-7---2---5----5------7-x8-------|
E|---3-------5-------3-------5-5-------3-----------5----------|

 Guitar 2 (2:12)

e|----------------------------10~----------------|
B|-----2-3-5-/7-\2--------------------------------|
G|---4-------------------------------------------|
D|-----------------------------------------------|
A|-----------------------------------------------|
E|-----------------------------------------------|

 Guitar 1 (2:29)

e|----------------------------------------------------------------|
B|----------------------------------------------------------------|
G|---4-------------7--------------4-------------7-----------------|
D|---4-x8---5------7-x8---7-------4-x8---5------7-x8---7----------|
A|---2------5-x8---5------7-x8----2------5-x8---5------7-x8-------|
E|----------3-------------5--------------3-------------5----------|

 Guitar 2 (2:29)

e|----------------------------------------|
B|-----3-2h3--5-5-2h3--7-7-7-5-5~---------|
G|---4------------------------------------|
D|----------------------------------------|
A|----------------------------------------|
E|----------------------------------------|

e|---5-------------5----------------------5/7~-/9/10~-----|
B|----3-3-2-2-3-3---3-3-2-2-3-3--5-5/7~-------------------|
G|--------------------------------------------------------|
D|--------------------------------------------------------|
A|--------------------------------------------------------|
E|--------------------------------------------------------|


Chorus

 Guitar 1 (2:42)

e|------------------------------------------------------------|
B|------------------------------------------------------------|
G|---4---------7--------------4-------------7-----------------|
D|---4----5----7-x8---7-------4-x8---5------7-x8---7----------|
A|---2----5----5------7-x8----2------5-x8---5------7-x8-------|
E|--------3-----------5--------------3-------------5----------|

e|------------------------------------------------------------|
B|------------------------------------------------------------|
G|---4------------------------------4-------------------------|
D|---4-x8---5------7------5---------4-x8---5------7-----------|
A|---2------5-x8---7-x8---5-x8------2------5-x8---7-x16-------|
E|----------3------5------3----------------3------5-----------|

 Guitar 2 (3:00)

e|--------------------------------------------------------|
B|-------------------8-8-7-7-5-5-3------------------7\----|
G|---------------------------------4~---------------------|
D|--------------------------------------------------------|
A|--------------------------------------------------------|
E|--------------------------------------------------------|

 Guitar 1 (3:08)

e|----------------------------------------------------------------|
B|----------------------------------------------------------------|
G|---4-------------7--------------4-------------7-----------------|
D|---4-x8---5------7-x8---7-------4-x8---5------7-x8---7----------|
A|---2------5-x8---5------7-x8----2------5-x8---5------7-x8-------|
E|----------3-------------5--------------3-------------5----------|

 Guitar 2 (3:08)

e|------------------------------------------------|
B|---3-3-3-3--5-5-5-5-5/7---3-3-3-3-3\2-----------|
G|------------------------------------------------|
D|------------------------------------------------| x2
A|------------------------------------------------|
E|------------------------------------------------|

 Guitar 1 (3:21)

e|------------------------------------------------------------|
B|------------------------------------------------------------|
G|---4-------------7--------------4--------------7----6-------|
D|---4-x8---5------7-x8---7-------4-x8---5-------7----7-------|
A|---2------5-x8---5------7-x8----2------5-x8----5----7-------|
E|----------3-------------5--------------3------------5-------|

 Guitar 2 (3:21)

e|---10-10-10-10-10~-----14-12--12------14-12--14-12--14-12--14-12--12-------|
B|---------------------------------------------------------------------------|
G|---------------------14-----14------14-----14-----14-----14-----14---------|
D|---------------------------------------------------------------------------|
A|---------------------------------------------------------------------------|
E|---------------------------------------------------------------------------|


| /   slide up
| \   slide down
| h   hammer-on
| p   pull-off
| ~   sustain





Comments


Popular Taylor Swift tabs & chords
Come Back Be Here 2 Chords
Dear John 5 Chords
I Almost Do 1 Chords
I Knew You Were Trouble 6 Chords
If This Is A Movie Chords
Nashville Chords
We Were Happy Chords
Youre Not Sorry 1 Chords
Beautiful Eyes Ukulele
Missing You Ukulele


Song lyrics



↑ Back to top | Tablatures and chords are parodies/interpretations of the original songs. You may use it for private study, scholarship, research or language learning purposes only
© 2014 AZChords.com Contact us | Privacy policy | DMCA | Add/correct tabs | Request tabs | Top 50 tabs