» » »

Taylor Swift, Better Than Revenge Bass tabs (ver.1)

Artists:  A B C D E F G H I J K L M N O P Q R S T U V W X Y Z # 

Better Than Revenge Bass tabs (ver.1)

Taylor Swift Tabs
Rating:
0/5 (0 votes)
Better Than Revenge lessons Tabs too difficult? Try these video lessons and learn fast
                Song Title: Better Than Revenge



INTRO:
|----------------------|----------------------|----------------------|
|----------------------|----------------------|----------------------|
|2--2--2--2--2--2--2--2|----------------------|5--5--5--5--5--5--5--5|
|----------------------|3--3--3--3--3--3--3--3|----------------------|

|----------------------|
|----------------------|
|----------------------|
|5--5--5--5--5--5--5--5|

|----------------------|----------------------|----------------------|
|----------------------|----------------------|----------------------|
|2--2--2--2--2--2--2--2|----------------------|5--5--5--5--5--5--5--5|
|----------------------|3--3--3--3--3--3--3--3|----------------------|

|----------------------|
|----------------------|
|----------------------|
|5--5--5--5--5--5--5--5|



VERSE:
|---------------|---------------|---------------|---------------|
|---------------|---------------|---------------|---------------|
|2------2------2|---------------|5------5------5|---------------|
|---------------|3------3------3|---------------|5------5------5|

|---------------|---------------|---------------|---------------|
|---------------|---------------|---------------|---------------|
|2------2------2|---------------|5--------------|---------------|
|---------------|3------3------3|---------------|5--------------|

|---------------|---------------|---------------|---------------|
|---------------|---------------|---------------|---------------|
|2------2------2|---------------|5------5------5|---------------|
|---------------|3------3------3|---------------|5------5------5|

|---------------|---------------|---------------|---------------|
|---------------|---------------|---------------|---------------|
|2------2------2|---------------|5--------------|---------------|
|---------------|3------3------3|---------------|5--------------|



CHORUS:
|----------------------|----------------------|----------------------|
|----------------------|----------------------|----------------------|
|0--0--0--0--0--0--0--0|2--2--2--2--2--2--2--2|----------------------|
|----------------------|----------------------|3--3--3--3--3--3--3--3|

|----------------------|----------------------|----------------------|
|----------------------|----------------------|----------------------|
|5--5--5--5--5--5--5--5|----------------------|2--2--2--2--2--2--2--2|
|----------------------|5--5--5--5--5--5--5--5|----------------------|

|----------------------|----------------------|----------------------|
|----------------------|----------------------|----------------------|
|----------------------|5--5--5--5--5--5--5--5|----------------------|
|3--3--3--3--3--3--3--3|----------------------|5--5--5--5--5--5--5--5|

|----------------------|----------------------|----------------------|
|----------------------|----------------------|----------------------|
|2------2------2------2|----------------------|----------------------|
|----------------------|3------3------3------3|5------5------5------5|

|----------------------|----------------------|----------------------|
|----------------------|----------------------|----------------------|
|----------------------|2--2--2--2--2--2--2--2|----------------------|
|3--3--3--3--3--3--3--3|----------------------|3--3--3--3--3--3--3--3|

|----------------------|
|----------------------|
|----------------------|
|5---------------------|



RIFF:
|----------------------|----------------------|
|----------------------|----------------------|
|2--2--2--2--2--2--2--2|----------------------|
|----------------------|3--3--3--3--3--3--3--3|

|----------------------|----------------------|
|----------------------|----------------------|
|5--5--5--5--5--5--5--5|----------------------|
|----------------------|5--5--5--5--5--5--5--5|



VERSE:
|----------------------|----------------------|
|----------------------|----------------------|
|2--2--2--2--2--2--2--2|----------------------|
|----------------------|3--3--3--3--3--3--3--3|

|----------------------|----------------------|----------------------|
|----------------------|----------------------|----------------------|
|5--5--5--5--5--5--5--5|----------------------|2--2--2--2--2--2--2--2|
|----------------------|5--5--5--5--5--5--5--5|----------------------|

|----------------------|----------------------|----------------------|
|----------------------|----------------------|----------------------|
|----------------------|----------------------|----------------------|
|3--3--3--3--3--3--3--3|5---------------------|5---------------------|

|----------------------|----------------------|----------------------|
|----------------------|----------------------|----------------------|
|2--2--2--2--2--2--2--2|----------------------|5--5--5--5--5--5--5--5|
|----------------------|3--3--3--3--3--3--3--3|----------------------|

|----------------------|----------------------|----------------------|
|----------------------|----------------------|----------------------|
|----------------------|2--2--2--2--2--2--2--2|----------------------|
|5--5--5--5--5--5--5--5|----------------------|3--3--3--3--3--3--3--3|

|----------------------|----------------------|----------------------|
|----------------------|----------------------|----------------------|
|----------------------|----------------------|----------------------|
|5---------------------|5---------------------|5------5------5------5|



CHORUS:
|----------------------|----------------------|
|----------------------|----------------------|
|2--2--2--2--2--2--2--2|----------------------|
|----------------------|3--3--3--3--3--3--3--3|

|----------------------|----------------------|----------------------|
|----------------------|----------------------|----------------------|
|5--5--5--5--5--5--5--5|----------------------|2--2--2--2--2--2--2--2|
|----------------------|5--5--5--5--5--5--5--5|----------------------|

|----------------------|----------------------|----------------------|
|----------------------|----------------------|----------------------|
|----------------------|5--5--5--5--5--5--5--5|----------------------|
|3--3--3--3--3--3--3--3|----------------------|5--5--5--5--5--5--5--5|

|----------------------|----------------------|----------------------|
|----------------------|----------------------|----------------------|
|2------2------2------2|----------------------|----------------------|
|----------------------|3------3------3------3|5------5------5------5|

|----------------------|----------------------|----------------------|
|----------------------|----------------------|----------------------|
|----------------------|2--2--2--2--2--2--2--2|----------------------|
|3--3--3--3--3--3--3--3|----------------------|3--3--3--3--3--3--3--3|

|----------------------|
|----------------------|
|----------------------|
|5---------------------|



BRIDGE:
|----------------------|----------------------|----------------------|
|----------------------|----------------------|----------------------|
|2--2--2--2--2--2--2--2|2--2--2--2--2--2--2--2|4---------------------|
|----------------------|----------------------|----------------------|

|----------------------|----------------------|----------------------|
|----------------------|----------------------|----------------------|
|5---------------------|2---------------------|5--5--5--5--4--4--4--4|
|----------------------|----------------------|----------------------|

|----------------------|----------------------|----------------------|
|----------------------|----------------------|----------------------|
|5---------------------|5---------------------|5--5--5--5--5--5--5--5|
|----------------------|----------------------|----------------------|

|----------------------|
|----------------------|
|4--4--4--4--4--4--4--4|
|----------------------|



SOLO:
|----------------------|----------------------|----------------------|
|----------------------|----------------------|----------------------|
|2--2--2--2--2--2--2--2|----------------------|5--5--5--5--5--5--5--5|
|----------------------|3--3--3--3--3--3--3--3|----------------------|

|----------------------|
|----------------------|
|----------------------|
|5--5--5--5--5--5--5--5|

|----------------------|----------------------|----------------------|
|----------------------|----------------------|----------------------|
|2--2--2--2--2--2--2--2|----------------------|5--5--5--5--5--5--5--5|
|----------------------|3--3--3--3--3--3--3--3|----------------------|

|----------------------|
|----------------------|
|----------------------|
|5--5--5--5--5--5--5--5|



CHORUS:
|----------------------|----------------------|----------------------|
|----------------------|----------------------|----------------------|
|2---------------------|----------------------|5--5--5--5--5--5--5--5|
|---------------------3|5---------------------|----------------------|

|----------------------|----------------------|----------------------|
|----------------------|----------------------|----------------------|
|----------------------|2--2--2--2--2--2--2--2|----------------------|
|5--5--5--5--5--5--5--5|----------------------|3--3--3--3--3--3--3--3|

|----------------------|----------------------|----------------------|
|----------------------|----------------------|----------------------|
|5--5--5--5--5--5--5--5|----------------------|2--2--2--2--2--2--2--2|
|----------------------|5--5--5--5--5--5--5--5|----------------------|

|----------------------|----------------------|----------------------|
|----------------------|----------------------|----------------------|
|----------------------|----------------------|----------------------|
|3--3--3--3--3--3--3--3|5--5--5--5--5--5--5--5|3--3--3--3--3--3--3--3|

|----------------------|----------------------|----------------------|
|----------------------|----------------------|----------------------|
|2--2--2--2--2--2--2--2|----------------------|----------------------|
|----------------------|3--3--3--3--3--3--3--3|5--5--5--5--5--5--5--5|

|----------------------|----------------------|----------------------|
|----------------------|----------------------|----------------------|
|----------------------|2--2--2--2--2--2--2--2|----------------------|
|5--5--5--5--5--5--5--5|----------------------|3--3--3--3--3--3--3--3|

|----------------------|----------------------|----------------------|
|----------------------|----------------------|----------------------|
|5--5--5--5--5--5--5--5|----------------------|2--2--2--2--2--2--2--2|
|----------------------|5--5--5--5--5--5--5--5|----------------------|

|----------------------|----------------------|----------------------|
|----------------------|----------------------|----------------------|
|----------------------|5--5--5--5--5--5--5--5|----------------------|
|3--3--3--3--3--3--3--3|----------------------|5--5--5--5--5--5--5--5|

|----------------------|----------------------|----------------------|
|----------------------|----------------------|----------------------|
|2--2--2--2--2--2--2--2|----------------------|5--5--5--5--5--5--5--5|
|----------------------|3--3--3--3--3--3--3--3|----------------------|

|----------------------|----------------------|----------------------|
|----------------------|----------------------|----------------------|
|----------------------|2--2--2--2--2--2--2--2|----------------------|
|5--5--5--5--5--5--5--5|----------------------|3--3--3--3--3--3--3--3|

|----------------------|----------------------|
|----------------------|----------------------|
|5---------------------|----------------------|
|----------------------|5---------------------|


i heard the song on the radio,and i tried to make a tab for it ., i hope you like it.

-LEARN IT - PLAY IT - LIKE IT - LOVE IT -
            

comments powered by Disqus
↑ Back to top | Taylor Swift Bass for Better Than Revenge. Lyrics for acoustic guitar and electric guitar. Tablatures and chords are parodies/interpretations of the original songs. You may use it for private study, scholarship, research or language learning purposes only