» » »

T.A.T.U, Sacrifice Tabs (ver.1)

Artists:  A B C D E F G H I J K L M N O P Q R S T U V W X Y Z # 

Sacrifice Tabs (ver.1)

T.A.T.U Tabs
Rating:
0/5 (0 votes)
Sacrifice lessons Tabs too difficult? Try these video lessons and learn fast
                t.A.t.U. SACRIFICE
************************************* 

Day Tabbed= 16.11.06
Please mail me for anything concerning the tab  

1/2 Step Down 

     INTRO ( CLASSICAL GUITAR ) 
       Note:there’s a delay(maybe around 12s)  ( x 6 )
e !------------------------------------------------------------------------------|
B |------------------------------------------------------------------------------|
G |---10~--(10)~—---9~--(-9)~----------------------------------------------------|
D |---12~--(12)~---10~--(10)~---8p7h8h7h8---(8p7h8h7h8)---7h8h10—(7h8h10)--------|
A |---12~--(12)~---10~--(10)~----------------------------------------------------|
E |------------------------------------------------------------------------------| 

     CHORUS  ( heavy distortion )
E |-------------------------------------------------------------------------------|
B |-------------------------------------------------------------------------------|
G |-----7------5-------------3-------------7------5--------------3------2---------|
D |-----7------5------5------3------7------7------5------5-------3------2---------|
A |-----5------3------5------1------7------5------3------5-------1------0---------|
E |-------------------3----------------------------------3------------------------|
 
     ( 1:29 ) 
E |-------------------------------------------------------------------------------|
B |--------------6~--------------5~-----------------------------------------------|
G |----------------------------------------------3~-------------------------------|
D |---------7---------------5------------------------------7h8h10-(7h8h10)--------|
A |----5---------------3--------------------5-------------------------------------|
E |------------------------------------3------------------------------------------|
 
     ACUSTIC GUITAR  ( use these chords,hear the song for the right rhythm )
     ( 2:04 )         ( x 2 )
e |------x-------------------x---------x---------x-------------------------------|
B |------3---------1---------3---------1---------3-------------------------------|
D |------2---------0---------0---------3---------5-------------------------------|
G |------0---------2---------0---------3---------5-------------------------------|
A |------0---------3---------x---------1---------3-------------------------------|
E |------x---------x---------3---------------------------------------------------| 



Tablature Explanation 
*********************** 
   p = pull off
   h = hammer on 
   x = mute string  
  () = delay
   ~ = hold
            

comments powered by Disqus
↑ Back to top | T.A.T.U Tabs for Sacrifice. Lyrics for acoustic guitar and electric guitar. Tablatures and chords are parodies/interpretations of the original songs. You may use it for private study, scholarship, research or language learning purposes only