» » »

Taproot, Violent Seas Tabs (ver.2)

Artists:  A B C D E F G H I J K L M N O P Q R S T U V W X Y Z # 

Violent Seas Tabs (ver.2)

Taproot Tabs
 Rating:
4/5 (4 votes)
Violent Seas lessons Tabs too difficult? Try these video lessons and learn fast
1
                taproot - violent seas

bass tab


5-stringed bass
G D A E B

verso

|--------------|----------|
|---1----------|----------|
|-13-3-3333333-|----------|
|--------------|-----4444-|
|--------------|-4444-----|

variacion de verso

|----------|----------|
|----------|----------|
|-1h333333-|----------|
|----------|-----4444-|
|----------|-4444-----|

pre-coro

|--------------------|
|--------------------|
|--------------------|
|-11-133-344-4/6-644-|
|--------------------|

variacion de pre-coro

|--------------------|
|--------------------|
|--------------------|
|-111133334444/66\44-|
|--------------------|

coro parte 1

|-------------------------|----------------------------------|
|-------------------------|----------------------------------|
|-------------------------|----------------------------------|
|-------4-444-------1-111-|-------4-444/6-6-6----------------|
|-4-4-4-------1-1-1-------|-4-4-4-------------6-66\4-4\3-3\1-|

coro parte 2

|--------------------------------|
|--------------------------------|
|-3-333/6-66666------------------|
|--------------6-6-666\1-1111111-|
|--------------------------------|

middle

|---------------------------------|
|---------------------------------|
|---------------------------------|
|--------------4-4-4--------------|
|-1-1-1-6-6666-------66\4-4\3-3\1-|

break

|-------------------|
|-------------------|
|-------------------|
|-44444------111111-|
|------111111-------|

agradezco a mi tambor cilindrico que tuve en la banda, dentro tiene algunos recuerdos 
taras que nunca pude hacer. banda 2002-2004 instituto americano.
doky 2006
            
Submit corrections

comments powered by Disqus
↑ Back to top | Taproot Tabs for Violent Seas. Lyrics for acoustic guitar and electric guitar. 1 Tablatures and chords are parodies/interpretations of the original songs. You may use it for private study, scholarship, research or language learning purposes only