» » »

Mirrors' Reflection Tabs (ver.1)

Artists:  A B C D E F G H I J K L M N O P Q R S T U V W X Y Z # 

Mirrors' Reflection Tabs (ver.1)

Taproot
Rating:
0/5 (0 votes)

Hard to play? Try these video lessons and learn fast.
                
Tuning: (A,E,A,D,G,B)

INTRO:
|-----------------------------------------------------------------|
|-8----8-8--8----8-8--8----8-8--8----8-8--66-6-66--6--66-6-66--6--|
|-X----X-X--X----X-X--X----X-X--X----X-X--XX-X-XX-----XX-X-XX-----|
|-6/7--7-7--7\6--6-6--6/7--7-7--7\6--6-6--44-4-44-4-4-44-4-44-4-4-|
|-----------------------------------------------------------------|
|-----------------------------------------------------------------|

VERSE:
|----------------|
|----------------|
|----------------|
|-44-4-4-4p3-3-3-|
|-44-4-4-4p3-3-3-|
|-44-4-4-4p3-3-3-|

VERSE B:
|-------------------------------|
|-------------------------------|
|-------------------------------|
|-0h1-1/2-2/3-0h1-1/2-2/3-0h1-0-|
|-0h1-1/2-2/3-0h1-1/2-2/3-0h1-0-|
|-0h1-1/2-2/3-0h1-1/2-2/3-0h1-0-|

CHORUS: (w/ effect)
|------------------------------------------------------------------|
|------------------------------------------------------------------|
|-77-7-7777777-55-5-5555555-99-9-9999999--7/9-9/11-11/14-14-141414-|
|-XX-X-XXXXXXX-XX-X-XXXXXXX-XX-X-XXXXXXX--X-X-X-X---X--X--X--X-X-X-|
|-55-5-5555555-33-3-3333333-77-7-7777777--5/7-7/9---9/12-12-121212-|
|------------------------------------------------------------------|

|-----------------------------------|
|-----------------------------------|
|-77-7-7777777-55-5-5555555-99-9-99-|
|-XX-X-XXXXXXX-XX-X-XXXXXXX-XX-X-XX-|
|-55-5-5555555-33-3-3333333-77-7-77-|
|-----------------------------------|

CHORUS 2:
|------------------------------------------------------------------|
|------------------------------------------------------------------|
|-777777777777-555555555555-999999999999--7/9-9/11-11/141414141414-|
|-777777777777-555555555555-999999999999--X-X-X-X---X--X-X-X-X-X-X-|
|-555555555555-333333333333-777777777777--5/7-7/9---9/121212121212-|
|------------------------------------------------------------------|

|----------------------------------------|
|----------------------------------------|
|-777777777777-555555555555-999999999999-|
|-777777777777-555555555555-999999999999-|
|-555555555555-333333333333-777777777777-|
|----------------------------------------|

CHORUS FILL:
|--------------------------|
|--------------------------|
|-77-7-77-7-7--77-7-77-7-7-|
|-77-7-77-7-7--77-7-77-7-7-|
|-55-5-55-5-5--55-5-55-5-5-|
|--------------------------|

INTERLUDE:
|-------------------------|
|-------------------------|
|-------------------------|
|-0h1-1/2-2/3-0h1-1/2-2/3-|
|-0h1-1/2-2/3-0h1-1/2-2/3-|
|-0h1-1/2-2/3-0h1-1/2-2/3-|

INTERLUDE END:
|-------|
|-------|
|-------|
|-0h1-0-|
|-0h1-0-|
|-0h1-0-|
            
Hard to play? Try these video lessons and learn fast. | Correct




comments powered by Disqus
↑ Back to top | Tablatures and chords are parodies/interpretations of the original songs. You may use it for private study, scholarship, research or language learning purposes only