» » »

Mirrors' Reflection Bass tabs (ver.1)

Artists:  A B C D E F G H I J K L M N O P Q R S T U V W X Y Z # 

Mirrors' Reflection Bass tabs (ver.1)

Taproot
Rating:
0/5 (0 votes)

Hard to play? Try these video lessons and learn fast.
                Taproot - Mirror’s reflection

Verse: (0:19)
G|------------------|  |-------------------------------|
D|------------------|  |-------------------------------|
A|------------------|  |-------------------------------|
E|------------------|x4|-------------------------------|
A|-44-4-4-4p3-3-3---|  |-0h1-1h2-2h3-0h1-1h2-2h3-0h1-0-|

G|------------------|  |-------------------------------|
D|------------------|  |-------------------------------|
A|------------------|  |-------------------------------|
E|------------------|x2|-------------------------------| x3
A|-44-4-4-4p3-3-3---|  |-0h1-1h2-2h3-0h1-1h2-2h3-0h1-0-|

G|------------------|
D|------------------|
A|------------------|
E|------------------|x4 
A|-44-4-4-4p3-3-3---|

Chorus:
G|-----------------------------------------|
D|---------------------------------------7-|
A|---7----7----5----5----9----9----7----7--|
E|-5---55---53---33---37---77---75---55----|
A|-----------------------------------------|

G|-----------------------------------------|
D|-----775-------553-----------------------|
A|---7-----7---5-----5---9----9------------|
E|-5---------3---------7---77---7.---------|
A|-----------------------------------------|

Verse:
Chorus:
Chorus 2:
G|-----------------------------------------|
D|---------------------------------------7-|
A|---7----7----5----5----9----9----7----7--|
E|-5---55---53---33---37---77---75---55----|
A|-----------------------------------------|

G|------------------------------------------------------------------------|
D|------------------------------------------------------------------------|
A|---7----7----5----5----9----9-------------------------------------------|
E|-5---55---53---33---37---77---7555-5555-5555-5555-5555-5555-5555-555555-|
A|------------------------------------------------------------------------|

Bridge
G|-------------|   |-------------------|
D|-------------|   |-------------------|
A|-------------|   |-------------------|
E|-------------|x10|-------------------|
A|-0h1-1h2-2h3-|   |-0h1-1h2-2h3-0h1-0-|

Rest:
Last Chorus:
G|-------------------------------------------|
D|-------------------------------------------|
A|-------------------------------------------|
E|-5-5-55-5-53-3-33-3-37-7-77-7-7-5-5-55-5-5-| x2
A|-------------------------------------------|

G|-------------------------------------------|
D|-------------------------------------7-----|
A|---------------------------------------7---|
E|-5-5-55-5-53-3-33-3-37-7-77-7-7-5-5-5----5-| 
A|-------------------------------------------|

G|--------------------------------|
D|-----775-------553--------------|
A|---7-----7---5-----5---9----9---|
E|-5---------3---------7---77---7-|
A|--------------------------------|

End
G|--------------------------------|
D|--------------------------------|
A|--------------------------------|
E|--------------------------------|
A|-0h1-1h2-2h3-0h1-1h2-2h3-0h1-00-|
            
Hard to play? Try these video lessons and learn fast. | Correct




comments powered by Disqus
↑ Back to top | Tablatures and chords are parodies/interpretations of the original songs. You may use it for private study, scholarship, research or language learning purposes only