» » »

Taproot, I Will Not Fall For You Bass tabs (ver.2)

Artists:  A B C D E F G H I J K L M N O P Q R S T U V W X Y Z # 

I Will Not Fall For You Bass tabs (ver.2)

Taproot Tabs
 Rating:
4.2/5 (5 votes)
I Will Not Fall For You lessons Tabs too difficult? Try these video lessons and learn fast
1
                taproot - I will not fall for you

bass tab


5-stringed bass
G D A E B

intro

|--------------------------------|
|--------------------------------|
|--------------------------------|
|--------------------------------|
|-3---3---3333---3---3---3---3---|

inicio de verso

|-----|
|-----|
|-----|
|--13-|
|-3---|

verso

|--------------|             |--------------|
|--------------|             |--------------|
|----------30--|   variacion |----------86--|
|----1-13-3--3-|             |-555555666--8-|
|-3-3----------|             |--------------|

pre-coro

|-------------------|------------------------------|
|-------------------|------------------------------|
|-------------------|------------------------------|
|-333555/101010\888-|-/151515\131313\111111\101010-|
|-------------------|------------------------------|

|--------------|
|--------------|
|----------86--|
|-555555666--8-|
|--------------|

|---------------|
|---------------|
|-------------5-|
|-555555666-56--|
|---------------|

coro

|-----------------|
|-----------------|
|-----------------|
|----------1-3----|
|-333333333---1-3-|

|----------|
|----------|
|----------|
|----------|
|-3--3--3--|

middle

|--------------------------------------|------------|--------------------------------------|
|--------------------------------------|------------|--------------------------------------|
|--------------------------111111------|------------|-------------------------111111-------|
|--------------------------------------|------------|--------------------------------------|
|-444444666666333333111111------444444-|-33333·····-|-444444666666333333111111------444444-|

|---------------|-----------------|
|---------------|-----------------|
|---------------|------3--53-53-5-|
|-------1-3-----|----35-53--5--5--|
|-3--33----1-3--|-33--------------|

fin

|-----|
|-----|
|-----|
|-31--|
|---3-|

quiero mandar saludos al tortuga, al ayudante del tortuga, a la saluciana y a la 
uthaaaaa, a los que se prenden tambien al alvaro asturizaga y al antonio aguilar que se 
ah y al manuel marañon tambien. doky 2006
            
Submit corrections

comments powered by Disqus
↑ Back to top | Taproot Bass for I Will Not Fall For You. Lyrics for acoustic guitar and electric guitar. 1 Tablatures and chords are parodies/interpretations of the original songs. You may use it for private study, scholarship, research or language learning purposes only