» » »

Calling Bass tabs (ver.3)

Artists:  A B C D E F G H I J K L M N O P Q R S T U V W X Y Z # 

Calling Bass tabs (ver.3)

Taproot
Rating:
0/5 (0 votes)

Hard to play? Try these video lessons and learn fast.
                taproot - Calling

bass tab


5-stringed bass
G D A E B

intro

|-----------------|
|-----------------|
|-----------------|
|---------------3-|
|-63-65-3-63-65---|

verso

|-----------------|
|---------------5-|
|-85-87-5-85-87---|
|-----------------|
|-----------------|

variacion de verso

|-----------7/5-7----|
|----------------5-7-|
|-85-87-5-85---------|
|--------------------|
|--------------------|

break

|-------------------|
|-------------------|
|-------------------|
|-33333333-11111111-|
|-------------------|

coro

|--------------------------------|
|-55555-3------------------------|
|---------11111-33---------------|
|------------------333333-111111-|
|--------------------------------|

middle

|------------------------------------|
|------------------------------------|
|------(6)--(6)----8888--------------|
|------------------------------------|
|-44444---44---6666-----8888---88888-|

|-----------|
|-----------|
|-----------|
|-----------|
|-4444444-6-|


|-----------------------------------------|
|-----------------------------------------|
|-----------------------------------------|
|-----------------------------------------|
|-3--33---3--33---3--33---3--33---3-------|

quiero mandar saludos al mas prestero de mi curso: al rynner del-gado que esta en
medicina y me ha dicho que iba a jugar en el tigre... utha cuate me has engañado,
he descbierto que estas en el Alto FC... doky 2006
            
Hard to play? Try these video lessons and learn fast. | Correct




comments powered by Disqus
↑ Back to top | Tablatures and chords are parodies/interpretations of the original songs. You may use it for private study, scholarship, research or language learning purposes only