» » »

Breathe Bass tabs (ver.1)

Artists:  A B C D E F G H I J K L M N O P Q R S T U V W X Y Z # 

Breathe Bass tabs (ver.1)

Taproot
Rating:
0/5 (0 votes)

Hard to play? Try these video lessons and learn fast.
                Taproot - Breathe

bass tab


5-stringed bass OR 6-stringed bass
(C) G D A E B

   INTRO
C-|-----16--16--16-----------------|
G-|---16--16--16--16---------------|
D-|-14---------------------9----\0-|
A-|-----------------888888---------|
E-|--------------------------------|
B-|--------------------------------|
                                                                              
   
   VERSO 1
C-|----------|----------------------|-----------------|----------------|
G-|----------|----97---5h7----------|-----------------|----11-9-77h9---|
D-|----------|-------9-----5\-------|---9---7---------|--------------7-|
A-|-55-------|-77-------------------|-7---5-----3-----|-77-------------|
E-|----11----|----------------33-11-|---------1-----5-|----------------|
B-|-------33-|----------------------|-------------3---|----------------|
                                                                              

C-|-----------------|--------------------|-------|
G-|-----------------|----9/11-9----7-----|-------|
D-|---9---7---------|-----------11---7---|-------|
A-|-7---5-----3-----|-77-----------------|-------|
E-|---------1-----5-|--------------------|-33-11-|
B-|-------------3---|--------------------|-------|
                                                                              

   CORO
C-|---------------------------------|
G-|---------------------------------|
D-|---------------------------------|
A-|---------------------------------|
E-|-0000----1111----3333----3333----|
B-|---------------------------------|
                                                                              

   ULTIMO CORO
C-|----------------------------------|
G-|----------------------------------|
D-|----------------------------7---5-|
A-|----------------------------------|
E-|-0000----1111----3333----33---3---|
B-|----------------------------------|
                                                                              

   VERSO 2
C-|------------------|----------------|-------|-----------------|
G-|-9----\0----------|----11-9-77h9---|-------|-----------------|
D-|------------------|--------------7-|-------|---9---7---------|
A-|---------55-------|-77-------------|-------|-7---5-----3-----|
E-|------------11----|----------------|-33-11-|---------1-----5-|
B-|---------------33-|----------------|-------|-------------3---|
                                                                              

C-|------------------|-------|-----------------|----------------|-------|
G-|----9/11-9----7---|-------|-----------------|----11-9-66h7---|-------|
D-|-----------11---7-|-------|---9---7---------|--------------7-|-------|
A-|-77---------------|-------|-7---5-----3-----|-77-------------|-------|
E-|------------------|-33-11-|---------1-----5-|----------------|-33-11-|
B-|------------------|-------|-------------3---|----------------|-------|
                                                                              
   
   MIDDLE
C-|------------------|
G-|------------------|
D-|------------------|
A-|------------------|
E-|-000000-3333------|
B-|-------------3333-|
                                                                              

   VERSO 3
C-|------------------|----------------|-------|-----------------|
G-|-9----\0----------|----11-9-77h9---|-------|-----------------|
D-|------------------|--------------7-|-------|---9---7---------|
A-|---------55-------|-77-------------|-------|-7---5-----3-----|
E-|------------11----|----------------|-33-11-|---------1-----5-|
B-|---------------33-|----------------|-------|-------------3---|
                                                                              

C-|------------------|-------|
G-|----9/11-9----7---|-------|
D-|-----------11---7-|-------|
A-|-77---------------|-------|
E-|------------------|-33-11-|
B-|------------------|-------|
                                                                               
   
   FIN
C-|---------------------|-----------------------|
G-|---------------------|-9---9/11-66h7---------|
D-|---------------------|-----------------------|
A-|---------------------|---------------5----\0-|
E-|-0000-1111-3333-3333-|-0---------------------|
B-|---------------------|-----------------------|
                                                 
Les mando saludos a los de la banda Ahead a la que pertenezco hasta que me este ps.
al Andy que toca la guitarra y canta rocks.
al Ranas que es mi hermano y toca la guitarra y grita ps.
el desaparecido Olker que tocaba la bata huaso.
en Ahead toco el bajo preste y tal vez la bateria.

doky2007                             
            
Hard to play? Try these video lessons and learn fast. | Correct




comments powered by Disqus
↑ Back to top | Tablatures and chords are parodies/interpretations of the original songs. You may use it for private study, scholarship, research or language learning purposes only