» » »

Taproot, Again Again Tabs (ver.3)

Artists:  A B C D E F G H I J K L M N O P Q R S T U V W X Y Z # 

Again Again Tabs (ver.3)

Taproot Tabs
 Rating:
4/5 (4 votes)
Again Again lessons Tabs too difficult? Try these video lessons and learn fast
                Tuning: (A,E,A,D,G,B)

INTRO: (light distortion)
|--------------------------|
|--------------------------|
|--------------------------|
|--------------------------|
|-3p0-0-0-0h2-2-2-2-2h3-33-|
|-3p0-0-0-0h2-2-2-2-2h3-33-|

VERSE: (heavy distortion)
|--------------------------|
|--------------------------|
|--------------------------|
|-3p0-0-0-0h2-2-2-2-2/3-33-|
|-3p0-0-0-0h2-2-2-2-2/3-33-|
|-3p0-0-0-0h2-2-2-2-2/3-33-|

VERSE B:
|----------------------------------------------------------|
|----------------------------------------------------------|
|-10\7-7-7-7/9--10--10-10\7-7-7-7/9--10--10-10\7-7-7-7/9-9-|
|--X-X-X-X-X-X---X---X--X-X-X-X-X-X---X---X--X-X-X-X-X-X-X-|
|--8-5-5-5-5-7---8---8--8-5-5-5-5-7---8---8--8-5-5-5-5-7-7-|
|----------------------------------------------------------|

|-----------------------------------|
|-----------------------------------|
|-10-101010\7-7-7-7/9-9-9-9-9/10-10-|
|--X--X-X-X-X-X-X-X-X-X-X-X-X--X--X-|
|--8--8-8-8-5-5-5-5-7-7-7-7-7--8--8-|
|-----------------------------------|

CHORUS: (10th and 12th frets)
(play first part 2X, then 2nd part once, then first again)
|----------------------------------|----------------------------------|
|----------------------------------|----------------------------------|
|-9-999----------------------------|-99999----------------------------|
|-9-999-9-5-/10-1212-12-1212121212-|-99999-9-5-/10-1212-12-1212121212-|
|-7-777-9-5-/10-1010-10-1010101010-|-77777-9-5-/10-1010-10-1010101010-|
|-------9-5-/10-1010-10-1010101010-|-------9-5-/10-1010-10-1010101010-|

FILL:
|---|
|---|
|---|
|-5-|
|-5-|
|-5-|

INTERLUDE: (slight distortion)
|-----------------------------------------|
|-----------------------------------------|
|-----------------------------------------|
|-14\11-1111-12-12--14\11-1111-12-12-10-9-|
|-12\9---9-9-10-10--12\9---9-9-10-10------|
|-----------------------------------------|

INTERLUDE 2:
|----------------------------------------------------|
|----------------------------------------------------|
|----------------------------------------------------|
|-14\11-11-11-11-12-12-12-12-12-12-12-12-12-12-12-12-|
|-12\9---9--9--9-10-10-10-10-10-10-10-10-10-10-10-10-|
|----------------------------------------------------|
            
Submit corrections

comments powered by Disqus
↑ Back to top | Taproot Tabs for Again Again. Lyrics for acoustic guitar and electric guitar. Tablatures and chords are parodies/interpretations of the original songs. You may use it for private study, scholarship, research or language learning purposes only