» » »

Omaha Chords (ver.2)

Artists:  A B C D E F G H I J K L M N O P Q R S T U V W X Y Z # 

Omaha Chords (ver.2)

Tapes N Tapes
Rating:
2/5 (2 votes)

Hard to play? Try these video lessons and learn fast.
                ----------------------------------------------------------------------------
                             Omaha - Tapes 'n Tapes
----------------------------------------------------------------------------

Tuning: EADGBe

Chords used:


      C      Am     G      B     C/G    C/B    Am/D   Am/C

E-----0------0------3-------------0------0------0------0-------|
B-----1------1------0------4------1------1------1------1-------|
G-----0------2------0------4------0------0------2------2-------|
D-----2------2------0------4------2------2------0------2-------|
A-----3------0------2------2------3------2------0------3-------|
E-------------------3-------------3----------------------------|



Intro:

C Am G  x4

C        Am

Omaha, Omaha 

G         C

Where you been? 

         Am      G   Am

When we meet we can talk awhile 

G          B          Am 

I can sleep in your dreams 

            G         B       C

The night alone I've been waiting 


      Am   G

Omaha, Omaha 

C                         Am   G       Am

The saddled streets, the burro beats down my door 

          G        B   Am

When you say it's no love affair 
 
        G      B         G

I will know and when we go 

     Am      B      C

I'll be the only thing who cares 



C/G               C    C/B   Am  Am/D  Am/C     

I've been waiting awhile 
I've been waiting awhile 
I've been waiting awhile 
I've been waiting awhile 

Here I come, Omaha 
Hiding out 
I got hot head, hot eyes, hot ticks, hot mouth 
Each howl, I get bigger 
I can't stay, I can for the night, for the night 
For the weekend and the night 
I've been aiding my fall 
Aiding my fall, aiding my fall 
I'll be long gone 

You shouldn't wake me awhile 
You shouldn't wake me awhile 
You shouldn't wake me awhile 
You shouldn't wake me awhile 
            
Hard to play? Try these video lessons and learn fast. | Correct




comments powered by Disqus
↑ Back to top | Tablatures and chords are parodies/interpretations of the original songs. You may use it for private study, scholarship, research or language learning purposes only