>
 >
Just Drums

Just Drums Guitar Tabs

Tapes N Tapes - Just Drums chords, tabs, tablatures, lyrics

Guitar lessons | Add/correct | Request | Top 50 tabs Artists:  A B C D E F G H I J K L M N O P Q R S T U V W X Y Z 0-9

Just Drums Guitar Tabs – Tapes N Tapes

CD, Sheet music, Poster

Do you like Just Drums? Share with your friends now
ChordsTabsUkulele

4/4 Time
v  = Strum from low strings to high
^  = Strum from high strings to low (When under lines of tabliture)
^  = Bend string (When next to a note)
:| = Repeat

Intro
e-----------------------------------------------------------------------------|
B-----------------------------------------------------------------------------|
G---------------------------------------------------------9-9-9-9-9-9^-9^-9^--|
D---------9--11--11----------9--11--9--11----------9--11----------------------|
A--9--11--------------9--11-----------------9--11-----------------------------|
E-----------------------------------------------------------------------------|

Preverse
e----------------9-----9--9--9--9--9--9--------|
B----------------9-----9--9--9--9--9--9--------|
G----------------9-----9--9--9--9--9--9--------|
D----9---9---9---11----11-11-11-11-11-11-------|
A----11--11--11--------------------------------|
E----9---9---9---------------------------------|
     v   v   v   v     ^  v ^ v ^ v ^ v


Verse                                          x8
e----------------9-----9--9--9--9--9--9--------:|
B----------------9-----9--9--9--9--9--9--------:|
G----------------9-----9--9--9--9--9--9--------:|
D----9---9---9---11----11-11-11-11-11-11-------:|
A----11--11--11--------------------------------:|
E----9---9---9---------------------------------:|
     v   v   v   v     ^  v ^ v ^ v ^ v

Prechorus
e------------------------------------------------------------|
B------------------------------------------------------------|
G------------------------------------------------------------|
D----8--8--8--8--8--8--8--8--9--9--9--9--8--8--8--8----------|
A----6--6--6--6--6--6--6--6--7--7--7--7--6--6--6--6----------|
E------------------------------------------------------------|

Chorus                                                      x2 
e-----------------------------------------------------------:|
B-----------------------------------------------------------:|
G----6--6--6--6--6--6--6--6--6--6--6--6---------------------:|
D----6--6--6--6--6--6--6--6--6--6--6--6--4-4-4-4-5-5-5-5----:|
A----4--4--4--4--4--4--4--4--4--4--4--4--2-2-2-2-3-3-3-3----:|
E-----------------------------------------------------------:|


Bridge
e-----------------------------------------------------------|
B-----------------------------------------------------------|
G----6--6--6--6--6--6--6--6--6--6--6--6---------------------|
D----6--6--6--6--6--6--6--6--6--6--6--6--4-4-4-4-5-5-5-5----|
A----4--4--4--4--4--4--4--4--4--4--4--4--2-2-2-2-3-3-3-3----|
E-----------------------------------------------------------|

e-------------------------------------------------------------|
B-------------------------------------------------------------|
G----6--6--6--6--6--6--6--6--6--6--6--6-----------------------|
D----6--6--6--6--6--6--6--6--6--6--6--6--4-4-4-4-5-5-5-5-11---|
A----4--4--4--4--4--4--4--4--4--4--4--4--2-2-2-2-3-3-3-3-9----|
E-------------------------------------------------------------|


Drum Break/Buildup
    
(Bass line)

Guitar comes in over the bass line:
                                               x4
e----------------------------------------------:|
B----------------------------------------------:|
G----------------------------------------------:|
D----6--6---4/6--6--6-6---8--8--8-9--9-9--8----:|
A----4--4---2/4--4--4-4---6--6--6/7--7-7--6----:|
E----------------------------------------------:|

Then Verse comes in with volume swell.


Modified Verse
                                              x2
e----------------9-----9--9--9--9--9--9--------:|------------------------------|
B----------------9-----9--9--9--9--9--9--------:|------------------------------|
G----------------9-----9--9--9--9--9--9--------:|------------------------------|
D----9---9---9---11----11-11-11-11-11-11-------:|----9--9--9--9--11-11-11-11---|
A----11--11--11--------------------------------:|----7--7--7--7--9--9--9--9----|
E----9---9---9---------------------------------:|------------------------------|


---------------------------------------------------------
Song Structure:
Intro
Preverse
Verse
Prechorus
Verse
Prechorus
Chorus
Verse
Prechorus
Chorus
Verse
Prechorus
Bridge
Drum Break/Buildup
Modified Verse





Comments


Popular Tapes N Tapes tabs & chords
Time Of Songs Bass Tabs
Freak Out Chords
Just Drums Chords
Omaha 1 Chords
10 Gallon Ascots Tabs
Just Drums Intro Tabs
Manitoba Tabs
Manitoba Intro Tabs
Just Drums Ukulele
Omaha Ukulele


Song lyrics



↑ Back to top | Tablatures and chords are parodies/interpretations of the original songs. You may use it for private study, scholarship, research or language learning purposes only
© 2014 AZChords.com Contact us | Privacy policy | DMCA | Add/correct tabs | Request tabs | Top 50 tabs