» » »

I'll Stay Here Tabs (ver.2)

Artists:  A B C D E F G H I J K L M N O P Q R S T U V W X Y Z # 

I'll Stay Here Tabs (ver.2)

Tantric
Rating:
0/5 (0 votes)

Tabs too difficult? Try these video lessons and learn fast.
                Half Step Down
D-A-D-Gb-A-D Tuning


Intro
D---0-0-0-0-0---0-0-0-0-0---0-0-0-0-0-0-0-0---0-0-0-0-0---0-0-0-0-
A---0-0-0-0-0---0-0-0-0-0---0-0-0-0-0-0-0-0---0-0-0-0-0---0-0-0-0-
Gb--2-2-2-3-3---2-2-2-3-3---2-2-2-3-5-3-2-3---2-2-2-3-3---2-2-2-3-
D---0-0-0-0-4---0-0-0-0-4---0-0-0-0-0-0-0-2---0-0-0-0-4---0-0-0-0-
A-----------------------------------------------------------------
D-----------------------------------------------------------------

D---0--0--0--0--0--0--0--0--0-------------------------------------
A---0--0--0--0--0--0--0--0--0-------------------------------------
Gb--0--0--0--0--0--0--0--0--0-------------------------------------
D---0--7--5--4--5--0--7--5--4--0--2--3-3-3------------------------
A---0--5--3--2--3--0--5--3--2--0--2--3-3-3------------------------
D---0--------------0-----------0--2--3-3-3------------------------

Verse
D---0--0--0--0--0-------------------------------------------------
A---0--0--0--0--0-------------------------------------------------
Gb--0--0--0--0--0-------------------------------------------------
D---0--7--5--4--5------------------------------------------------- x4
A---0--5--3--2--3-------------------------------------------------
D---0-------------------------------------------------------------


Pre-Chorus
D-------------------------------------------0---------------------
A-------------------------------------------0---------------------
Gb------------------------------------------0---------------------
D---3-3--3-3--3-3--3-3--2-2--2-2--2-3-3-3-2-0---------------------
A---3-3--3-3--3-3--3-3--2-2--2-2--2-3-3-3-2-0---------------------
D---3-3--3-3--3-3--3-3--2-2--2-2--2-3-3-3-2-0---------------------

Chorus
D---0--0--0--0--0--0--0--0--0-------------------------------------
A---0--0--0--0--0--0--0--0--0-------------------------------------
Gb--0--0--0--0--0--0--0--0--0-------------------------------------
D---0--7--5--4--5--0--7--5--4--0--2--3-3-3------------------------
A---0--5--3--2--3--0--5--3--2--0--2--3-3-3------------------------
D---0--------------0-----------0--2--3-3-3------------------------

Break
D-----------------------------------------------------------------
A-----------------------------------------------------------------
Gb----------------------------------------------------------------
D-----------------------------------------------------------------x6
A-----3-3-3--2-3-5-3 2--------------------------------------------
D---0-------------------5-3-0-3-3-3-3-2-3-5-3-2-0-3-3-------------


Intro
Verse
Pre-Chorus
Chorus
Verse
Pre-Chorus
Chorus x2
Intro
Break
Pre-Chorus
Chorus x6

That's About it
I know for sure that this is the correct tuning 
becoz i got it off their set list from the show

Bob "FETUS" Torrey
            
Tabs too difficult? Try these video lessons and learn fast.




comments powered by Disqus
↑ Back to top | Tablatures and chords are parodies/interpretations of the original songs. You may use it for private study, scholarship, research or language learning purposes only