>
 >
Frequency 1

Frequency 1 Guitar Tabs

Tantric - Frequency 1 chords, tabs, tablatures, lyrics

Guitar lessons | Add/correct | Request | Top 50 tabs Artists:  A B C D E F G H I J K L M N O P Q R S T U V W X Y Z 0-9

Frequency 1 Guitar Tabs – Tantric

CD, Sheet music, Poster

Do you like Frequency 1? Share with your friends now
Bass TabsTabsTabs v2

Tuning: Dropped-D Flat (Db Ab Db Gb Bb Eb)

Intro/Chrous
|--------------------------------------------------------------------|
|--------------------------------------------------------------------|
|---------9^()r-----------------------------------------------------|
|--2--2-------------0--2---x--x---0--2--2------------x--x---2--3--5--|
|--2--2-------------0--2---x--x---0--2--2------------x--x---2--3--5--|
|--2--2-------------0--2---x--x---0--2--2---7^()r---x--x---2--3--5--|


Verse
|------------------------------------|
|------------------------------------|
|------------------------------------|
|--2--2-------0--2--2-------2--3--5--|
|--2--2-------0--2--2-------2--3--5--|
|--2--2-------0--2--2-------2--3--5--|
   pm------------------------------|
                                                         
|--------------------------------------------------------------------|
|--------------------------------------------------------------------|
|---------9^()r-----------------------------------------------------|
|--2--2-------------0--2---x--x---0--2--2------------x--x---2--3--5--|
|--2--2-------------0--2---x--x---0--2--2------------x--x---2--3--5--|
|--2--2-------------0--2---x--x---0--2--2---7^()r---x--x---2--3--5--|x4


Pre-Chorus
                   x4 (This part played clean)
|--------------------|-----------------------------|
|--------------------|-----------------------------|
|--------------------|---7---5----------0-------0--|
|--7----5----7----0--|-------------0h2-----0h2-----|
|--7----5----7----0--|-----------------------------|
|--7----5----7----0--|-----------------------------|

Chorus
|---------------------------3-----2---|
|---5-----5-3h5p3---------------------|
|-----5-----------5-----5-----5-------|
|-------------------------------------|
|-0-----0-----------0-0---0-----0---0-|
|-------------------------------------|

Bridge
|--------------------------------------------------------------------|
|--------------------------------------------------------------------|
|---------9^()r-----------------------------------------------------|
|--2--2-------------0--2---x--x---0--2--2------------x--x---2--3--5--|
|--2--2-------------0--2---x--x---0--2--2------------x--x---2--3--5--|
|--2--2-------------0--2---x--x---0--2--2---7^()r---x--x---2--3--5--|

|----------------------------------------------------|
|----------------------------------------------------|
|---------9^()--------------------------------------|
|--2--2-------------0--2---x--x---0--2--2------------|
|--2--2-------------0--2---x--x---0--2--2------------|
|--2--2-------------0--2---x--x---0--2--2---7^()r---|
                                            gradual bend

Interlude
|-----------------|-----------|
|-----------------|-----------|
|-----------------|-----------|
|--0--2--2--x--x--|--2--3--5--|
|--0--2--2--x--x--|--2--3--5--|
|--0--2--2--x--x--|--2--3--5--|


Outro
|--------------------------------------------------------------------|
|--------------------------------------------------------------------|
|---------9^()r-----------------------------------------------------|
|--2--2-------------0--2---x--x---0--2--2------------x--x---2--3--5--|
|--2--2-------------0--2---x--x---0--2--2------------x--x---2--3--5--|
|--2--2-------------0--2---x--x---0--2--2---7^()r---x--x---2--3--5--|

|----------------------------------------------------|
|----------------------------------------------------|
|---------9^()r-------------------------------------|
|--2--2-------------0--2---x--x---0--2--2------------|
|--2--2-------------0--2---x--x---0--2--2------------|
|--2--2-------------0--2---x--x---0--2--2---7^()r---|

And this is it.





Comments


Popular Tantric tabs & chords
Astounded Bass Tabs
Breakdown Bass Tabs
Mourning Bass Tabs
Mourning 1 Chords
After We Go Tabs
Astounded Tabs
Foresight Intro Tabs
Inside Your Head Tabs
Just Once Tabs
Mourning 4 Tabs


Song lyrics



↑ Back to top | Tablatures and chords are parodies/interpretations of the original songs. You may use it for private study, scholarship, research or language learning purposes only
© 2014 AZChords.com Contact us | Privacy policy | DMCA | Add/correct tabs | Request tabs | Top 50 tabs