» » »

Tantric, Frequency Tabs (ver.2)

Artists:  A B C D E F G H I J K L M N O P Q R S T U V W X Y Z # 

Frequency Tabs (ver.2)

Tantric Tabs
 Rating:
4/5 (4 votes)
Frequency lessons Tabs too difficult? Try these video lessons and learn fast
1
                
Tuning: Dropped-D Flat (Db Ab Db Gb Bb Eb)

Intro/Chrous
|--------------------------------------------------------------------|
|--------------------------------------------------------------------|
|---------9^(½)r-----------------------------------------------------|
|--2--2-------------0--2---x--x---0--2--2------------x--x---2--3--5--|
|--2--2-------------0--2---x--x---0--2--2------------x--x---2--3--5--|
|--2--2-------------0--2---x--x---0--2--2---7^(½)r---x--x---2--3--5--|


Verse
|------------------------------------|
|------------------------------------|
|------------------------------------|
|--2--2-------0--2--2-------2--3--5--|
|--2--2-------0--2--2-------2--3--5--|
|--2--2-------0--2--2-------2--3--5--|
   pm------------------------------|
                                                         
|--------------------------------------------------------------------|
|--------------------------------------------------------------------|
|---------9^(½)r-----------------------------------------------------|
|--2--2-------------0--2---x--x---0--2--2------------x--x---2--3--5--|
|--2--2-------------0--2---x--x---0--2--2------------x--x---2--3--5--|
|--2--2-------------0--2---x--x---0--2--2---7^(½)r---x--x---2--3--5--|x4


Pre-Chorus
                   x4 (This part played clean)
|--------------------|-----------------------------|
|--------------------|-----------------------------|
|--------------------|---7---5----------0-------0--|
|--7----5----7----0--|-------------0h2-----0h2-----|
|--7----5----7----0--|-----------------------------|
|--7----5----7----0--|-----------------------------|

Chorus
|---------------------------3-----2---|
|---5-----5-3h5p3---------------------|
|-----5-----------5-----5-----5-------|
|-------------------------------------|
|-0-----0-----------0-0---0-----0---0-|
|-------------------------------------|

Bridge
|--------------------------------------------------------------------|
|--------------------------------------------------------------------|
|---------9^(½)r-----------------------------------------------------|
|--2--2-------------0--2---x--x---0--2--2------------x--x---2--3--5--|
|--2--2-------------0--2---x--x---0--2--2------------x--x---2--3--5--|
|--2--2-------------0--2---x--x---0--2--2---7^(½)r---x--x---2--3--5--|

|----------------------------------------------------|
|----------------------------------------------------|
|---------9^(½)--------------------------------------|
|--2--2-------------0--2---x--x---0--2--2------------|
|--2--2-------------0--2---x--x---0--2--2------------|
|--2--2-------------0--2---x--x---0--2--2---7^(½)r---|
                                            gradual bend

Interlude
|-----------------|-----------|
|-----------------|-----------|
|-----------------|-----------|
|--0--2--2--x--x--|--2--3--5--|
|--0--2--2--x--x--|--2--3--5--|
|--0--2--2--x--x--|--2--3--5--|


Outro
|--------------------------------------------------------------------|
|--------------------------------------------------------------------|
|---------9^(½)r-----------------------------------------------------|
|--2--2-------------0--2---x--x---0--2--2------------x--x---2--3--5--|
|--2--2-------------0--2---x--x---0--2--2------------x--x---2--3--5--|
|--2--2-------------0--2---x--x---0--2--2---7^(½)r---x--x---2--3--5--|

|----------------------------------------------------|
|----------------------------------------------------|
|---------9^(½)r-------------------------------------|
|--2--2-------------0--2---x--x---0--2--2------------|
|--2--2-------------0--2---x--x---0--2--2------------|
|--2--2-------------0--2---x--x---0--2--2---7^(½)r---|

And this is it.
            
Submit corrections

comments powered by Disqus
↑ Back to top | Tantric Tabs for Frequency. Lyrics for acoustic guitar and electric guitar. 1 Tablatures and chords are parodies/interpretations of the original songs. You may use it for private study, scholarship, research or language learning purposes only