» » »

Down And Out Tabs (ver.1)

Artists:  A B C D E F G H I J K L M N O P Q R S T U V W X Y Z # 

Down And Out Tabs (ver.1)

Tantric
Rating:
4/5 (4 votes)

Hard to play? Try these video lessons and learn fast.
                Hey guys no one else had this tab so I thought I'd put it up.

Verse
Guitar 1
D#|--------------------------------|
A#|--------------------------------|
F#|--------------------------------|
C#|-0-00-3-1-0-111--0-00-3-1-1-111-|
G#|-0-00-3-1-0-111--0-00-3-1-1-111-|
C#|-0-00-3-1-0-111--0-00-3-1-1-111-|

Guitar 2
you'll hear when it comes in the intro and when the 2nd guitar comes into the verse it 
violin part
D#|------------------------------   ---------------------|
A#|------------------------------   ---------------------|
F#|------------------------------   ---7--7--7--7--------|
C#|-0~~~~~-----------------------   ---7--7--7--7--------|
G#|-0~~~~~-----------------------   ---5--5--5--5--------|
C#|-0~~~~~-----------------------   ---------------------|

Pre-chorus
listen to the song to find the strum
D#|-
A#|-
F#|-
C#|-3---7---5---2-|
G#|-3---7---5---2-|
C#|-3---7---5---2-|

Chorus- same thing as guitar 1 verse just listen to the song to hear the strum of it
            
Hard to play? Try these video lessons and learn fast. | Correct




comments powered by Disqus
↑ Back to top | Tablatures and chords are parodies/interpretations of the original songs. You may use it for private study, scholarship, research or language learning purposes only