» » »

Fate Of The Stars Tabs (ver.1)

Artists:  A B C D E F G H I J K L M N O P Q R S T U V W X Y Z # 

Fate Of The Stars Tabs (ver.1)

Tally Hall
Rating:
4/5 (1 vote)

Tabs too difficult? Try these video lessons and learn fast.
                                              *VERSE*

          (first part of this verse is just piano and vocal)

To leave from this tale follow closely ahead
Prepare to exist by the living & dead
Too slow or too kind or too wary of those too at ease

          (Play each chord once at appropriate word)
                     A                                      A
Past all the buried impressions of then
                     C                                        B
Sullen drawn eyes and expressions to mend
                                  F                      Bb              E                    E
Continued through mirrors left broken to sing and be heard
                F                        Bb              E       E
Through when it seems all the senses are lost to absurd

                              *CHORUS*

Oooooh         Ohhhhh      Ohhhh        So the part where we
e|------------|------------|------------|------------|
B|------6-----|------------|------------|------------|
G|----7---7---|------5-----|------1-----|------1-----|
D|--7-------7-|----7---7---|----0---0---|----0---0---|
A|5-----------|--7-------7-|--2-------2-|--2-------2-|
E|------------|5-----------|0-----------|0-----------|

 are                                     Trapped in active
e|------------|------------|------------|------------|
B|------------|------5-----|------7-----|------7-----|
G|------5-----|----5---5---|----7---7---|----7---7---|
D|----7---7---|------------|--7-------7-|--7-------7-|
A|--7-------7-|--7-------7-|5-----------|5-----------|
E|5-----------|5-----------|------------|------------|
 depart                                  In the fate of the stars
e|------------|------------|------------|------------|
B|------6-----|------------|------------|------------|
G|----7---7---|------5-----|------4-----|------4-----|
D|--7-------7-|----7---7---|----5---5---|----5---5---|
A|5-----------|--7-------7-|--5-------5-|--5-------5-|
E|------------|5-----------|3-----------|3-----------|

No not one who we are
No control pumping heart
Button pressed mind in art
Mind control
Mind restart
          (You'll have to listen to the song to match the words with the notes)*
e|------------|------------|------------|------------|------------|-----------|5|
B|------------|------5-----|------7-----|------5-----|------4-----|-----------|5|
G|------5-----|----5---5---|----7---7---|----5---5---|----4---4---|-----------|6|
D|----7---7---|--7-------7-|--7-------7-|--5-------5-|--4-------4-|----8----6-|7|
A|--7-------7-|7-----------|5-----------|3-----------|2-----------|--8-----6--|7|
E|5-----------|------------|------------|------------|------------|6-----4----|5|

                              *VERSE*

To leave from the present with no source of sound
They laugh because silence is never around
e|------------|------------|
B|------------|------4-----|
G|------------|----4---4---|
D|------------|--4-------4-|
A|----5-53-42-|2-----------|
E|------------|------------|
Ignored and forgotten the past may continue to breathe
e|------------|------------|------------|------------|
B|------10----|------------|------9-----|------9-----|
G|----10--10--|------7-----|----9---9---|----9---9---|
D|--10------10|----8---8---|--9-------9-|--9-------9-|
A|8-----------|--8-------8-|7-----------|7-----------|
E|------------|6-----------|------------|------------|
Feared not a rest by this desolate friend
e|------------|------------|
B|------------|------5-----|
G|------5-----|----5---5---|
D|----7---7---|--7-------7-|
A|--7-------7-|7-----------|
E|5-----------|------------|
Whose patience revealed what intent comes to send
e|------------|------------|
B|------------|------4-----|
G|----7-----5-|----4---4---|
D|--7-----5---|--4-------4-|
A|5-----3-----|2-----------|
E|------------|------------|
With a stare at a hole in the world comes a lust to be high
e|------------|------------|------------|------------|
B|------------|------------|------9-----|------9-----|
G|------2-----|------7-----|----9---9---|----9---9---|
D|----3---3---|----8---8---|--9-------9-|--9-------9-|
A|--3-------3-|--8-------8-|7-----------|7-----------|
E|1-----------|6-----------|------------|------------|
Above all the dark nested clouds that keep guard of the sky
e|------------|------------|------------|------------|
B|------------|------------|------9-----|10----9-----|
G|------2-----|------7-----|----9---9---|--9-----9---|
D|----3---3---|----8---8---|--9-------9-|----9-----9-|
A|--3-------3-|--8-------8-|7-----------|------------|
E|1-----------|6-----------|------------|------------|

                              *CHORUS*

                              *VERSE*

          (there is no more guitar in the studio version of the song)
Step onto the ferris wheel
Round for day and night
Lost in what's forever more
Complacent in its reasons for
Give and Take and
Sleep and Wake and
Pray for Day and Night to come
Again we see there's certainty in
What we feel and what we've heard
Again we see there's certainty in
Expectations all the same




          *each syllable is pronounced in time with a single note.
            
Tabs too difficult? Try these video lessons and learn fast.




comments powered by Disqus
↑ Back to top | Tablatures and chords are parodies/interpretations of the original songs. You may use it for private study, scholarship, research or language learning purposes only