» » »

Spring And A Storm Tabs (ver.1)

Artists:  A B C D E F G H I J K L M N O P Q R S T U V W X Y Z # 

Spring And A Storm Tabs (ver.1)

Tally Hall
Rating:
5/5 (2 votes)

Hard to play? Try these video lessons and learn fast.
                Spring And A Storm - You can play the chords behind the finger picking part if you want
     A                       F#m
e||----9-------9----------|----9-------9------------||
B||------10------10---10--|------10------10----10---||
G||*-9------9-------9-----|-11------11------11-----*||
D||*----------------------|------------------------*||
A||-----------------------|-------------------------||
E||-----------------------|-------------------------||

   D                           Dm
e|----10-------10------------|----10-------10-----------|
B|-------10-------10-----10--|-------10-------10----10--|
G|-11-------11-------11------|-10-------10-------10-----|
D|---------------------------|--------------------------|
A|---------------------------|--------------------------|
E|---------------------------|--------------------------|

Upbeat part - rest of instrumentation kicks in - play this 3x
   A                      D           Dm
e|---9-------9----------|----10-------10-----------|
B|-----10------10---10--|-------10-------10----10--|
G|-9------9-------9-----|-11-------10-------10-----|
D|----------------------|--------------------------|
A|----------------------|--------------------------|
E|----------------------|--------------------------|

A F#m A F#m
D     Dm

Before second part
A D Dm - Repeat three times, on the fourth time replace Dm with F

Second Part
   A      D      E    D        A     D     E    D   A F#m A
e|------------5-----------5--|-----------5-7---------------|
B|-----5----7-----9-----7----|-----5---7-----9-------------|
G|---6----7-----9---8-7------|---6---7---------9-10-7------|
D|-7-------------------------|-7----------------------9-7--|
A|---------------------------|-----------------------------|
E|---------------------------|-----------------------------|

Chords:
 A  F#m  D   Dm  F
-0- -2- -2- -1- -1-
-2- -3- -3- -2- -1-
-2- -4- -2- -3- -2-
-2- -4- -0- -0- -3-
-0- -2- -x- -x- -x-
-0- -x- -x- -x- -x- 
            
Hard to play? Try these video lessons and learn fast. | Correct




comments powered by Disqus
↑ Back to top | Tablatures and chords are parodies/interpretations of the original songs. You may use it for private study, scholarship, research or language learning purposes only