» » »

Talking Heads, Psycho Killer Tabs (ver.5)

Artists:  A B C D E F G H I J K L M N O P Q R S T U V W X Y Z # 

Psycho Killer Tabs (ver.5)

Talking Heads Tabs
Rating:
4/5 (1 vote)
Psycho Killer lessons Tabs too difficult? Try these video lessons and learn fast
                (Intro)
Psycho Killer Tabs
Standard Tuning
EADBGE

F Chord
G chord
Am Chord
C chord
Bm Chord
A chord
G/A chord
A5 Chord
G5/A chord

Moderately: Q= 124 4/4

Intro

Bass               Gtr. 1
N.C.               Am11                        G5

                    W       (W)     W     (H.) Q
                    harm.====================
|-----------------|-------|-------|-12--|-(12)----|
|-----------------|-12----|-(12)--|-12--|-(12)----|
|--four-measures--|-12----|-(12)--|-12--|-(12)----|
|-----rest--------|-12----|-(12)--|-12--|-(12)-5/-|
|-----------------|-12----|-(12)--|-12--|-(12)-5/-|
|-----------------|-------|-------|-----|---------|

Gtr. 1
   A5
Rhy. Fig. 1                                                 End Rhy. Fig. 1
   Q  e e e e e e   (Q)  e e e e e e   Q  e e e e e e   (e) e e e e e e e

|-----------------|------------------|----------------|--------------------|
|-----------------|------------------|----------------|--------------------|
|-----------------|------------------|--------------5-|-----5-5-5---4-4-4/-|
|-/7--7-7-7-7-7-7-|-(7)--7-7-7-5-5-5/|/7--x---x-7-x-7-|-----7-7-7---5-5-5/-|
|-/7--7-7-7-7-7-7-|-(7)--7-7-7-5-5-5/|/7--x---x-7-x-7-|-----7-7-7---5-5-5/-|
|-----------------|------5-5-5-3-3-3/|/5------------5-|-----5-5-----3-3-3/-|

Gtr. 2

Rhy. Fig. 1a              End Rhy. Fig. 1a
  e e e e e e e e   e e e e e s s s s s s
|-5-5-5-5-5-5-5-5-|-5-5-5-5-5-8-8-8-8-8-8-|
|-5-5-5-5-5-5-5-5-|-5-5-5-5-5-7-7-7-7-7-7-|
|-----------------|-----------8-8-8-8-8-8-|
|-----------------|-----------------------|
|-----------------|-----------------------|
|-----------------|-----------------------|

THIS IS JUST THE INTRO FOR PSYCHO KILLER, SORRY BUT I DON'T ENOUGH TIME RIGHT NOW TO 
A FULL SONG TAB. I'LL GET AROUND TO THE OTHER PARTS LATER ON.
            
Submit corrections

comments powered by Disqus
↑ Back to top | Talking Heads Tabs for Psycho Killer. Lyrics for acoustic guitar and electric guitar. Tablatures and chords are parodies/interpretations of the original songs. You may use it for private study, scholarship, research or language learning purposes only