» » »

Psycho Killer Bass tabs (ver.2)

Artists:  A B C D E F G H I J K L M N O P Q R S T U V W X Y Z # 

Psycho Killer Bass tabs (ver.2)

Talking Heads
Rating:
4/5 (6 votes)

Hard to play? Try these video lessons and learn fast.
                BASSIST: Tina Weymouth
-------------------------------------------------|
-------------------------------------------------|
Pretty simple to play. The outro may not be right 
but I'm pretty certain the rest is. Please rate.
Played in walking (finger) style. Standard tuning.
-------------------------------------------------|
-------------------------------------------------|

Verse

G|---------------------------------|
D|---------------------------------|
A|---------------------------------|
E|-5x--5x--5x--5x--5x--5x--5-0-3---|

Chorus

G|---------------------------------|
D|-3-------3-------5-------7-------|
A|-----5-3-----5-3-----7-5-----7-5-|
E|---------------------------------|

G|---------------------------------|
D|---------------------------------|
A|---------------------------------|
E|-5---5-3-5---5-3-5---5-3-5---5---| First 3 times

G|---------------------------------|
D|---------------------------------|
A|-3---3-2-3---3-2-3---3-2-3---3---|
E|---------------------------------| Forth time

Fill 1

G|---------------------------------|
D|-3-------3-------5-------5-------|
A|-----5-3-----5-3-----7-5-----7-5-|
E|---------------------------------|

Bridge

G|---------------------------------|
D|-4---2---0-----------------------|
A|-------------4---2---0---2---4---|
E|---------------------------------|

G|---------------------------------|
D|-5---4---2---0---5---4---2---0---|
A|---------------------------------|
E|---------------------------------|

G|---------------------------------|
D|-4---2---0-----------------------|
A|-------------4---2---0---2---4---|
E|---------------------------------|

G|---------------------------------|
D|-5---4---2---0---5---4---2---0---|
A|---------------------------------|
E|---------------------------------|

G|---------------------------------|
D|-----4-2-0-----4-2-0-------------|
A|-----------0---------0-----------|
E|---------------------------------|

G|-----4-2-0-----4-2-0-------------|
D|-----------0---------0-----------|
A|---------------------------------|
E|---------------------------------|

Outro

G|---------------------------------|
D|-5---7---5---7---5---7---5---7---|
A|---0---0---0---0---0---0---0---0-|
E|---------------------------------|

-------------------------|
-------------------------|
Verse x10 (0.00-0.38)
Chorus x4 (0.39-1.09)
Fill 1 x1 (1.10-1.13)
Verse x6  (1.14-1.36)
Chorus x4 (1.37-2.07)
Fill 1 x1 (2.08-2.12)
Bridge x1 (2.13-2.35)
Verse x4  (2.36-2.50)
Chorus x4 (2.51-3.21)
Fill 1 x1 (3.22-3.25)
Outro     (3.26-4.11)
-------------------------|
-------------------------|
| /  slide up
| \  slide down
| h  hammer-on
| p  pull-off
| ~  vibrato
| +  harmonic
| x  Mute note
            
Hard to play? Try these video lessons and learn fast. | Correct




comments powered by Disqus
↑ Back to top | Tablatures and chords are parodies/interpretations of the original songs. You may use it for private study, scholarship, research or language learning purposes only