» » »

And She Was Bass tabs (ver.1)

Artists:  A B C D E F G H I J K L M N O P Q R S T U V W X Y Z # 

And She Was Bass tabs (ver.1)

Talking Heads
Rating:
4/5 (3 votes)

Hard to play? Try these video lessons and learn fast.
                -------------------------------------------------------------------------------
-------------------------------------------------------------------------------


Tuning: Standard

INTRO/VERSE
G|---------------------------|
D|-----------------2---------|
A|-------2---0-0-4-----------|
E|-0-0-4--------------0------|

PRE-CHOURS
G|---------------------------------------------|
D|---------------------------------------------|
A|-1-1-------3-3-------1-1-------3-------------|
E|------1-1-------1-1-------1-1----------------|

G|---------------------------------------------|
D|---------------------------------------------|
A|-1-1-------3-3-------1-1-------3-3-----------|
E|------1-1-------1-1-------3-3----------------|

CHOURS
G|---------------------------------------------|
D|---------------------------------------------|
A|------------5-5------------------------------|
E|--0-0--5-5------5---5-5-5-5-5----------------|

BRIDGE
G|-----------------------------------------------------|
D|-----------7----9--10--9--7----------------9----12---|
A|--------9--------------------9---10-10-10------------|
E|-7-7-7-----------------------------------------------|
            
Hard to play? Try these video lessons and learn fast. | Correct




comments powered by Disqus
↑ Back to top | Tablatures and chords are parodies/interpretations of the original songs. You may use it for private study, scholarship, research or language learning purposes only