» » »

Tal Bachman, Aeroplane Tabs (ver.1)

Artists:  A B C D E F G H I J K L M N O P Q R S T U V W X Y Z # 

Aeroplane Tabs (ver.1)

Tal Bachman Tabs
 Rating:
3.8/5 (5 votes)
Aeroplane lessons Tabs too difficult? Try these video lessons and learn fast
1
                Hi there :D

I've been searching for the tabs to Aeroplane SOLO by Tal Bachman so far, but finally I 
my own.

So, here you are (whole song + SOLO :D)


VERSE 1


CHORUS 1 INTRO:
"Now you and your love can show me the way
*(You gave me your heart and one last chance)..."
E----------------------------------------------|
B----------------------------------------------|
G----------------------------------------------|
D---7---(1 TIME, let ring, not too loud)-------|
A---7------------------------------------------|
E---5------------------------------------------|


CHORUS 1:
"Now I, I feel like an aeroplane anove the rain..."
E------------------------------------------------------|
B------------------------------------------------------|
G-----------------44444444-----------------------------|
D---2-2222222-----44444444------777777777777777--------|  2 TIMES
A---2-2222222-----22222222------777777777777777--------|
E-------------------------------555555555555555--------|


"It was love and evolution
It was tearing it us apart..."
E-------------------------------------------------------|
B-------------------------------------------------------|
G-----------------44444444------66666666----------------|  1 TIME
D---2-2222222-----44444444------66666666-----77777777---|
A---2-2222222-----22222222------44444444-----77777777---|
E--------------------------------------------55555555---|


"Now I, I feel like an aeroplane anove the rain
I can fly..."
E------------------------------------------------------|
B------------------------------------------------------|
G-----------------44444444-----------------------------|
D---2-2222222-----44444444------7--(LET RING)----------|  1 TIME
A---2-2222222-----22222222------7----------------------|
E-------------------------------5----------------------|

SECOND VERSE

CHORUS 2 INTRO:
"I am going to be there whenever you need
(I'll protect you, I'll respect you)..."
E----------------------------------------------|
B----------------------------------------------|
G----------------------------------------------|
D---7---(1 TIME, let ring, not too loud)-------|
A---7------------------------------------------|
E---5------------------------------------------|

CHORUS 2
"Now I, I feel like an aeroplane above the rain
And I, I won't make the same mistakes I used to make..."
E------------------------------------------------------|
B------------------------------------------------------|
G-----------------44444444-----------------------------|
D---2-2222222-----44444444------777777777777777--------|  2 TIMES
A---2-2222222-----22222222------777777777777777--------|
E-------------------------------555555555555555--------|


"It was just another emotion
It was running through my veins..."
E-------------------------------------------------------|
B-------------------------------------------------------|
G-----------------44444444------66666666----------------|  1 TIME
D---2-2222222-----44444444------66666666-----77777777---|
A---2-2222222-----22222222------44444444-----77777777---|
E--------------------------------------------55555555---|


"Now I, I feel like an aeroplane anove the rain
I can fly..."
E------------------------------------------------------|
B------------------------------------------------------|
G-----------------44444444-----------------------------|
D---2-2222222-----44444444------7--(LET RING)----------|  1 TIME
A---2-2222222-----22222222------7----------------------|
E-------------------------------5----------------------|

HERE STARTS THE SOLO:

E---------12----12-----------------------------------------|
B------12----12-------12-10--9---9b10r9-9s7s5--------------|
G----------------------------------------------------------|


E-----------12--------9-11-11b12--12b14r12-11-12--11-9-7--7-|
B---------12--12-12s10--------------------------------------|
G-----------------------------------------------------------|

E--7s5--5s4--4s2-2s4s2--0-----------------------------------|
B------------------------4----------------------------------|
G---------------------------/6v--6s8-8v--8s9-9v--9s11-11v---|

-=ONLY VOCALS=-

Now simply reapat chorus :D
That's all, thanks...
            
Submit corrections

comments powered by Disqus
↑ Back to top | Tal Bachman Tabs for Aeroplane. Lyrics for acoustic guitar and electric guitar. 1 Tablatures and chords are parodies/interpretations of the original songs. You may use it for private study, scholarship, research or language learning purposes only