» » »

The Union Bass tabs (ver.1)

Artists:  A B C D E F G H I J K L M N O P Q R S T U V W X Y Z # 

The Union Bass tabs (ver.1)

Taking Back Sunday
Rating:
0/5 (0 votes)

Tabs too difficult? Try these video lessons and learn fast.
                Band: Taking Back Sunday
Bassist: Matt Rubano

I couldn't find a bass tab for this anywhere so I decided I would create one to help the 
learn this song!
---------------
KEY

/ = slide up to (if before the note)/ from (if after the note)

\ = slide down to (if before the note)/ from (if after the note)

~ = Vibrato (bend string)
---------------
NOTES

IMPORTANT: the bar lines in this are not actually dividing the tab into bars. Instead i 
divided it into rounds, to try and make it easier to read.

All of the fills have been correctly written in, and despite me listing the names of 
I have set this out so you can just play from start to finish,
there is no need to jumble around the order at all. It does have an odd structure 
so the parts I have labelled are my interpretation of what that
part is, and may not reflect your own opinion, thus confuse you, so like I said, just 
through from start to finish and you'll see what I mean.

I have labelled the parts that require effects, the unlabelled parts require no effects.

Intro (Medium Overdrive)

G|-----------------|----------------|-------------------|------------------|
D|-----------9-9-9-|----------7-7-7-|-------------------|------------------|
A|-----------------|----------------|----------10-10-10-|------------------|
E|-7-7-7-7-7-------|-7-7-7-7-7------|-7-7-7-7-7---------|-7-7-7-7-7-5-5-5--|

Verse (Medium Overdrive)

G|-----------------|----------------|-------------------|-----------7-7-7--|
D|-----------9-9-9-|----------7-7-7-|-------------------|------------------|
A|-----------------|----------------|----------10-10-10-|------------------|
E|-7-7-7-7-7-------|-7-7-7-7-7------|-7-7-7-7-7---------|-7-7-7-7-7--------|

G|----------------|----------------|-------------------|-------------------|
D|----------9-9-9-|----------7-7-7-|-------------------|-------------------|
A|----------------|----------------|----------10-10-10-|----------------0--|
E|-7-7-7-7-7------|-7-7-7-7-7------|-7-7-7-7-7---------|-7-7-7-7-7-10-7----|

Bridge (Medium Overdrive)

G|---------------------------------|----------------------------------|
D|---------5-5-5-5-4-4-4-----------|---------5-5-5-5-4-4-4------------|
A|-----------------------5-5-5-5-5-|-----------------------5-5-5-5-5--|
E|-3-3-3-3-------------------------|-3-3-3-3--------------------------|

Verse (Medium Overdrive)

G|----------------|----------------|-------------------|-------------------|
D|----------9-9-9-|----------7-7-7-|-------------------|-------------------|
A|----------------|----------------|----------10-10-10-|----------------0--|
E|-7-7-7-7-7------|-7-7-7-7-7------|-7-7-7-7-7---------|-7-7-7-7-7-10-7----|

Bridge (Medium Overdrive)

G|---------------------------------|----------------------------------|
D|---------5-5-5-5-4-4-4-----------|---------5-5-5-5-4-4-4------------|
A|-----------------------5-5-5-5-5-|-----------------------5-5-5-5-5--|
E|-3-3-3-3-------------------------|-3-3-3-3--------------------------|

G|---------------------------------|----------------------------------|
D|---------5-5-5-5-4-4-4-----------|---------5-5-5-5-4-4-4-7-7-7-7-7--|
A|-----------------------5-5-5-5-5-|----------------------------------|
E|-5-5-5-5-------------------------|-6-6-6-6--------------------------|

Pre-Chorus                     |(Medium Overdrive on this round below)

G|-------------|---------------|----------------|
D|-------------|---------------|--/16-----------|
A|-------------|-2----2/4---4--|------17--------|
E|-7\----------|-------------3-|---------14~~---|

Chorus

G|-----------------|-----------------|-----------------|------------------|
D|-----------------|-----------------|-----------------|------------------|
A|-2-2-2-2-2-2-2-2-|-4-4-4-4-4-4-4-4-|-----------------|------------------|
E|-----------------|-----------------|-3-3-3-3-3-3-3-3-|-3-3-3-3-3-3-3-3--|

G|-----------------|-----------------|-----------------|------------------|
D|-----------------|-----------------|-----------------|------------------|
A|-2-2-2-2-2-2-2-2-|-4-4-4-4-4-4-4-4-|-----------------|------------------|
E|-----------------|-----------------|-3-3-3-3-3-3-3-3-|-3-3-3-3-3-5-5-5--|

Intro (Medium Overdrive)

G|----------------|----------------|-------------------|----------------------|
D|----------9-9-9-|----------7-7-7-|-------------------|----------------------|
A|----------------|----------------|----------10-10-10-|----------------------|
E|-7-7-7-7-7------|-7-7-7-7-7------|-7-7-7-7-7---------|-7-7-7-7-7-10-10-10---|

G|----------------|----------------|-------------------|----------------------|
D|----------9-9-9-|----------7-7-7-|-------------------|----------------------|
A|----------------|----------------|----------10-10-10-|----------------------|
E|-7-7-7-7-7------|-7-7-7-7-7------|-7-7-7-7-7---------|-7-7-7-7-7-10-10-10---|

Verse

G|-----------------|-----------------|-----------------|-----------7-7-7--|
D|-----------------|-----------------|-----------------|------------------|
A|-----------------|-----------------|-----------------|------------------|
E|-7-7-7-7-7-7-7-7-|-7-7-7-7-7-7-7-7-|-7-7-7-7-7-7-7-7-|-7-7-7-7-7--------|

G|-----------------|-----------------|-----------------|-------------------|
D|-----------------|-----------------|-----------------|-------------------|
A|-----------------|-----------------|-----------------|----------------0--|
E|-7-7-7-7-7-7-7-7-|-7-7-7-7-7-7-7-7-|-7-7-7-7-7-7-7-7-|-7-7-7-7-7-10-7----|

Bridge

G|---------------------------------|----------------------------------|
D|---------5-5-5-5-4-4-4-----------|---------5-5-5-5-4-4-4------------|
A|-----------------------5-5-5-5-5-|-----------------------5-5-5-5-5--|
E|-3-3-3-3-------------------------|-3-3-3-3--------------------------|

G|---------------------------------|----------------------------------|
D|---------5-5-5-5-4-4-4-----------|---------5-5-5-5-4-4-4-7-7-7-7-7--|
A|-----------------------5-5-5-5-5-|----------------------------------|
E|-5-5-5-5-------------------------|-6-6-6-6--------------------------|

Chorus

G|-----------------|-----------------|-----------------|------------------|
D|-----------------|-----------------|-----------------|------------------|
A|-2-2-2-2-2-2-2-2-|-4-4-4-4-4-4-4-4-|-----------------|------------------|
E|-----------------|-----------------|-3-3-3-3-3-3-3-3-|-3-3-3-3-3-3-3-3--|

G|-----------------|-----------------|-----------------|------------------|
D|-----------------|-----------------|-----------------|------------------|
A|-2-2-2-2-2-2-2-2-|-4-4-4-4-4-4-4-4-|-----------------|------------------|
E|-----------------|-----------------|-3-3-3-3-3-3-3-3-|-3-3-3-3-3-5-5-5--|

G|-----------------|-----------------|-----------------|------------------|
D|-----------------|-----------------|-----------------|------------------|
A|-2-2-2-2-2-2-2-2-|-4-4-4-4-4-4-4-4-|-----------------|------------------|
E|-----------------|-----------------|-3-3-3-3-3-3-3-3-|-3-3-3-3-3-3-3-3--|

G|-----------------|-----------------|-----------------|------------------|
D|-----------------|-----------------|-----------------|------------------|
A|-2-2-2-2-2-2-2-2-|-4-4-4-4-4-4-4-4-|-----------------|------------------|
E|-----------------|-----------------|-3-3-3-3-3-3-3-3-|-3-3-3-3-3-3-3-3--|

Bridge

G|--------------------------------|----------------------------------|
D|--------------------------------|----------------------------------|
A|--------------------------------|----------------------------------|
E|-77-777-777-777-777-777-777-777-|-777-777-777-777-777-777-777-777--|

If you have a 5 string then play the following (see below) for this part of the song. 
is however the only place in the song where
he uses the B string, so if like me you only have a 4 string, then play the one above. 
makes very little difference.

G|--------------------------------|----------------------------------|
D|--------------------------------|----------------------------------|
A|--------------------------------|----------------------------------|
E|-77-777-777-777-777-777-777-77--|----------------------------------|
B|------------------------------0-|-000-000-000-000-000-000-000-000--|

Pre-Chorus                     |(Medium Overdrive on this round below)

G|-------------|---------------|----------------|
D|---GUITAR----|-----ONLY------|--/16-----------|
A|-------------|---------------|------17--------|
E|-------------|---------------|---------14~~---|


Chorus

G|-----------------|-----------------|-----------------|------------------|
D|-----------------|-----------------|-----------------|------------------|
A|-2-2-2-2-2-2-2-2-|-4-4-4-4-4-4-4-4-|-----------------|------------------|
E|-----------------|-----------------|-3-3-3-3-3-3-3-3-|-3-3-3-3-3-3-3-3--|

G|-----------------|-----------------|-----------------|------------------|
D|-----------------|-----------------|-----------------|------------------|
A|-2-2-2-2-2-2-2-2-|-4-4-4-4-4-4-4-4-|-----------------|------------------|
E|-----------------|-----------------|-3-3-3-3-3-3-3-3-|-3-3-3-3-3-5-5-5--|

G|-----------------|-----------------|-----------------|------------------|
D|-----------------|-----------------|-5-5-5-5-4-4-4---|-----------5-4----|
A|-2-2-2-2-2-2-2-2-|-4-4-4-4-4-4-4-4-|---------------5-|-5-5-4-4-4-----5--|
E|-----------------|-----------------|-----------------|------------------|

G|-----------------|-----------------|--------------------|--------------------------|
D|-----------------|-----------------|------------------0-|-------------------17-19--|
A|-2-2-2-2-2-2-2-2-|-4-4-4-4-4-4-4-4-|--------------------|-------------17-17--------|
E|-----------------|-----------------|-3-3-3-3-15-15-15---|-15-15-17-17--------------|


Intro

G|----------------|----------------|--------------------|------------------|
D|----------9-9-9-|----------7-7-7-|--------------------|------------------|
A|----------------|----------------|-----------10-10-10-|------------------|
E|-7-7-7-7-7------|-7-7-7-7-7------|-7-7-7-7-7----------|-7-7-7-7-7-7-7-7--|

End by stabbing (hit but don't let it ring) the following:

G|---|-
D|---|-
A|---|-
E|-7-|-
            
Tabs too difficult? Try these video lessons and learn fast.


comments powered by Disqus
↑ Back to top | Tablatures and chords are parodies/interpretations of the original songs. You may use it for private study, scholarship, research or language learning purposes only