» » »

Timberwolves From New Jersey Bass tabs (ver.1)

Artists:  A B C D E F G H I J K L M N O P Q R S T U V W X Y Z # 

Timberwolves From New Jersey Bass tabs (ver.1)

Taking Back Sunday
Rating:
0/5 (0 votes)

Hard to play? Try these video lessons and learn fast.
                Standard Tuning

Intro

E 12////////////////

Verse/Main Riff

A----3---3---3------5--5--52------7--7--7------9--9--9
E1111-11--11--1-3333-33-33--3-5555-55-55-5-7777-77-77-7  listen closely for the rhythm

Chorus

D----------------------5--------------------------2---2
A--------------3-3-33-3--5-3-5-3----------------------
E55-555-555-555-----------------33-333-333-333-000-000

Bridge Part 1

D----------5
A---5h7-333-3h5---5-------2
E5-5-----------333-3h5-000-0h3

Bridge Part 2

A-----3~~~~~~2-----------------
E5~~~~--------3~~~~~1~~~~~~3-5~~~  repeat from teh E5

Bridge Part 3

A--------33333333-----------------
E55555555--------33333333-11111111

Outro

E1111-1-11-1-11-1-1-3333-3-33-3-33-3-3-5555-5-55-5-55-5-5-7777-7-77-7-77-7-7
(Same rhythm as Main riff/Verse but no A string)
            
Hard to play? Try these video lessons and learn fast. | Correct




comments powered by Disqus
↑ Back to top | Tablatures and chords are parodies/interpretations of the original songs. You may use it for private study, scholarship, research or language learning purposes only