» » »

Taking Back Sunday-Theres No I In Team Bass tabs (ver.1)

Artists:  A B C D E F G H I J K L M N O P Q R S T U V W X Y Z # 

Taking Back Sunday-Theres No I In Team Bass tabs (ver.1)

Taking Back Sunday
Rating:
0/5 (0 votes)

Tabs too difficult? Try these video lessons and learn fast.
                Intro
G----------------------------------------------------------------
D----4------------------4-------------------4--------------------
A-22---4/5----4/5~---00---4/5----4/5~---------4/5---4/5~---------
E----------------------------------------33----------------------

G----------------------------------------------------------------
D-----4----------------------------------------------------------
A-------4/5--4/4~------------------------------------------------
E--33------------------------------------------------------------

Chorus
G----------------------------------------------------------------
D----------------------------------------------------------------
A-22222222-4/5--00000000 4/5-------------------------------------
E-------------------------------3333333333333333-----------------

Bridge
G----------------------------------------------------------------
D----------------------------------------------------------------
A---00000000-00000000-0000000-00000000---------------------------
E----------------------------------------------------------------

Outro

G----------------------------------------------------------------
D----------------------------------------------------------------
A-222222222222--000000000000--4/5--------------------------------
E----------------------------------3333333333333-----------------

Intro x4
Chorus x2
Intro x4
Chorus x2
Bridge x2
Outro x4
            
Tabs too difficult? Try these video lessons and learn fast.


comments powered by Disqus
↑ Back to top | Tablatures and chords are parodies/interpretations of the original songs. You may use it for private study, scholarship, research or language learning purposes only