>
 >
Follow The Format

Follow The Format Guitar Tabs

Taking Back Sunday - Follow The Format chords, tabs, tablatures, lyrics

Guitar lessons | Add/correct | Request | Top 50 tabs Artists:  A B C D E F G H I J K L M N O P Q R S T U V W X Y Z 0-9

Follow The Format Guitar Tabs – Taking Back Sunday

CD, Sheet music, Poster

Do you like Follow The Format? Share with your friends now
Bass TabsTabs
I noticed that there were no tabs on the whole internet for this, so i tabbed it out
This is my first tab, and i threw it together in 5 mins, so dont expect it to be perfect

If you don't have this song, try kazaa or win mx because it rocks.

Also, i've put the lyrics at the bottom


Standard Tuning

Key
x  - mute note
pm - palm mute
*  - let ring
/  - slide up
\  - slide down
----------------

Drum Intro

Verse
Guitar 1 (0:06)
e-------------------------------|
B-------------------------------|
G--9-------6--------------------|
D---9-9-----6-6----9-------7----|  play 4 times
A-7--7----4--4------9-9-----7---|
E-----------------7--7----5--4--|

Verse
Guitar 2 (0:16)
e------------------|
B------------------|
G-9-9-9-9-9-9-11\9-|  play 4 times
D-x-x-x-x-x-x-x--x-|
A-7-7-7-7-7-7/9\-7-|
E------------------|

Pre Chorus
Guitar 1 and Guitar 2 (0:26)
 e-----------------------------|
 B-----------------------------|
 G-----------------------------|
 D-222222222222444444444444-7*-|
 A-222222222222444444444444-7*-|
 E-000000000000222222222222-5*-|
PM-********************

Chorus
Guitar 1 and Guitar 2 (0:35)
e------------------------|
B------------------------|
G-99999-66666------------|
D-99999-66666-99999-7777-| play 2 times
A-77770-44440-99999-7777-|
E-------------77770-5554-|

Verse again (0:47)
(guitar 2 plays riff 8 times)

Pre Chorus
Guitar 1 (1:08)
 e-----------------------------|
 B-----------------------------|
 G-----------------------------|
 D-222222222222444444444444-7*-|
 A-222222222222444444444444-7*-|
 E-000000000000222222222222-5*-|
PM-********************--------|

Guitar 2 plays a little solo over the F#5 chord, I normally just improvise.

Bridge
Guitar 1 and 2 (1:18)
e--------------------------------------------------|
B--------------------------------------------------|
G-666666666666------------999999999999-------------|
D-666666666666777777777777999999999999999999999999-| play 3 times
A-444444444444777777777777777777777777999999999999-|
E-------------555555555555------------777777777777-|

Cont'd
Guitar 1 and 2 (1:46)
 e---------------------------|
 B---------------------------|
 G-666666666666--------------|
 D-6666666666667777777777777-|
 A-4444444444447777777777777-|
 E-------------5555555555555-|
PM-------------*************-|

Outro
Guitar 1 and 2 (1:54)
e-----------------------------|
B-----------------------------|
G-99999-1111111111------------|
D-99999-1111111111-7777777777-| play 4 times
A-77777-9-9-9-9-9--7777777777-|
E------------------5555555555-|

cont'd
Guitar 1 and 2 (2:15)
e------------|
B------------|
G------------|
D-7777777777-|
A-7777777777-|
E-5555555555-|

Then,Play the Chorus until the end
Guitar 1 and 2 (2:18)

Hope this helps alot of TBS fans :P
Oh, and Ryan Is Cool

Lyrics:
Make a big scene
Make this glass house my coffin
You miss the big picture
Well it's the words that you're coughin' out,
out on your sleeve
So forge my sins here in song
Well I'm telling you now what you've known all along
And it's tired, so true,
More subtle than you
There's a lull in the stereo
It's calling for you (calling for you)
It's calling for you

Well I'm a slave to my vices
It's true
They've all been renamed as a crutch
So drag my name and my face through the mud
You're better at confronting me
Showing just how vicious you can be
Do what you came here to do (do what you came here to do)
Trigger finger gets you pointed in the right direction
My new found discretion

It's not a lie if you believe it
It's no mistake if it's always repeated
It's not a lie if you believe it
It's no mistake if it's always repeated

Shall we call it quits or just wait? (It's not a lie If you believe it)
Even, even if my last name rhymes with your rescue of hear say
Do not say you know (It's no mistake if its repeated)
Call me out
It's not a lie (It's such a lie)
But I don't need to hear it from you
So what's another word for (I don't need to hear it from you)
What's another word for (I don't need to hear it from you)
What's another word for (I don't need to hear it from you)
What's another word for (I don't need to hear it from you)

It gets easier with doses of time (easier with dull sense of time)
Easier with doses of time (easier with dull sense of time)
Easier with doses of time (easier with dull sense of time)
Easier with doses of time (easier with dull sense of time)
Show us just how vicious you can be (be)





Comments


Popular Taking Back Sunday tabs & chords
Youre So Last Summer Bass Tabs
Cut Me Up Jenny Chords
Little Devotional Chords
Best Places To Be A Mom 1 Tabs
Catholic Knees Tabs
Divine Intervention 2 Tabs
Good Enough Tabs
New American Classic 4 Tabs
Slowdance On The Inside Ukulele
This Photograph Is Proof Ukulele


Song lyrics



↑ Back to top | Tablatures and chords are parodies/interpretations of the original songs. You may use it for private study, scholarship, research or language learning purposes only
© 2014 AZChords.com Contact us | Privacy policy | DMCA | Add/correct tabs | Request tabs | Top 50 tabs