>
 >
Cut Me Up Jenny

Cut Me Up Jenny Guitar Tabs

Taking Back Sunday - Cut Me Up Jenny chords, tabs, tablatures, lyrics

Guitar lessons | Add/correct | Request | Top 50 tabs Artists:  A B C D E F G H I J K L M N O P Q R S T U V W X Y Z 0-9

Cut Me Up Jenny Guitar Tabs – Taking Back Sunday

CD, Sheet music, Poster

Do you like Cut Me Up Jenny? Share with your friends now
ChordsTabsUkulele

CUT ME UP JENNY
As recorded by Taking Back Sunday
(From the 2009 Album NEW AGAIN)



 Words by Adam Lazzara Music by Taking Back Sunday

Gtr I (Eb Ab Db Gb Bb Eb) - 'Left'
Gtr II (Eb Ab Db Gb Bb Eb) - 'Right'
Gtr III (Eb Ab Db Gb Bb Eb) - 'Center'
Gtr IV (Eb Ab Db Gb Bb Eb) - 'Untitled'


 Intro
  Q=155
 4/4
  Gtrs I, II
  Q.   Q.   Q    +E   H..          W
|--------------|----------------|-------|
|--------------|----------------|-------|
|-4----6----6--|-(6)--9---------|--9----|
|-6----7----7--|-(7)-11---------|-11----|
|-4----5----5--|-(5)--9---------|--9----|
|--------------|----------------|-------|


   Verse One
    Gtr I
     q  Q.   q  e   +e  H.      E   E E H    E e   +e  H    q  E   4x
||----------------|---------------|--------------|-----------------||
||o---------------|---------------|--------------|----------------o||
||-----------4--4-|-(4)---------4-|-6-6--------6-|-(6)------4------||
||---4------------|---------------|--------------|-----------------||
||o--4-------4--4-|-(4)---------4-|-5-5--------5-|-(5)------4-----o||
||---2------------|---------------|--------------|-----------------||
|
|   Gtr II
|    q  Q.   q  e   +e  H.      E   E E H    E e   +e  H    q  E   4x
||----------------|---------------|--------------|-----------------||
||o---------------|---------------|--------------|----------------o||
||---9-------4--4-|-(4)---------4-|-6-6--------6-|-(6)------4------||
||--11------------|---------------|--------------|-----------------||
||o--9-------4--4-|-(4)---------4-|-5-5--------5-|-(5)------4-----o||
||----------------|---------------|--------------|-----------------||


   q    Q.   q  e   +e  H.        E   E E H    E e   +e  H    q  E
|-----------------|-----------------|--------------|---------------|
|-----------------|-----------------|--------------|---------------|
|------------4--4-|-(4)-----------4-|-6-6--------6-|-(6)------4----|
|--4--------------|-----------------|--------------|---------------|
|--4---------4--4-|-(4)-----------4-|-5-5--------5-|-(5)------4----|
|--2--------------|-----------------|--------------|---------------|
|
|  q    Q.   q  e   +e  H.        E   E E H    E e   +e  H    q  E
|-----------------|-----------------|--------------|---------------|
|-----------------|-----------------|--------------|---------------|
|--9---------4--4-|-(4)-----------4-|-6-6--------6-|-(6)------4----|
|-11--------------|-----------------|--------------|---------------|
|--9---------4--4-|-(4)-----------4-|-5-5--------5-|-(5)------4----|
|-----------------|-----------------|--------------|---------------|
|
| Gtr III
|  H..          E    E  E  H.         W               W
|-----------------|-----------------|--------------|---------------|
|-----------------|-----------------|--------------|---------------|
|--9--------------|-----------------|--------------|---------------|
|-11--------------|-----------------|--------------|---------------|
|--9------------4-|--4--4-----------|--------------|---------------|
|---------------2-|--2--2-----------|--------------|---------------|


 Pre-Chorus One
  PM-----------------------------------------------------------------
  S S S S S S S S S S S S S S S S   S S S S S S S S S S S S S S S S
|---------------------------------|---------------------------------|
|---------------------------------|---------------------------------|
|---------------------------------|---------------------------------|
|---------------------------------|---------------------------------|
|---------------------------------|---------------------------------|
|-7-7-7-7-7-7-7-7-7-7-7-7-7-7-7-7-|-9-9-9-9-9-9-9-9-9-9-9-9-9-9-9-9-|
|
| W                                 W
|---------------------------------|---------------------------------|
|---------------------------------|---------------------------------|
|-2-------------------------------|-4-------------------------------|
|-4-------------------------------|-6-------------------------------|
|-2-------------------------------|-4-------------------------------|
|---------------------------------|---------------------------------|


 ---------------------------------------------------------------------------------|
   S  S  S  S  S  S  S  S  S  S  S  S  S  S  S  S   S S S S S S S S S S S S S S S S
|-------------------------------------------------|------------------------------------|
|-------------------------------------------------|------------------------------------|
|-------------------------------------------------|------------------------------------|
|-------------------------------------------------|------------------------------------|
|-------------------------------------------------|------------------------------------|
|-10-10-10-10-10-10-10-10-10-10-10-10-10-10-10-10-|-9-9-9-9-9-9-9-9-9-9-9-9-9-9-9-9----|
|
|  W                                                W
|-------------------------------------------------|------------------------------------|
|-------------------------------------------------|------------------------------------|
|--6----------------------------------------------|-4----------------------------------|
|--7----------------------------------------------|-6----------------------------------|
|--5----------------------------------------------|-4----------------------------------|
|-------------------------------------------------|------------------------------------|


  Q  Q  E E E E   +E  E Q  E E E E   E E E E E E E E   E E E E E E E E
|---------------|------------------|-----------------|-----------------|
|---------------|------------------|-----------------|-----------------|
|-4--4--4-4-4-7-|-(7)-7-7--7-7-7-7-|-6-6-6-6-6-6-6-6-|-6-6-6-6-6-6-6-6-|
|-4--4--4-4-4-7-|-(7)-7-7--7-7-7-7-|-6-6-6-6-6-6-6-6-|-6-6-6-6-6-6-6-6-|
|-2--2--2-2-2-5-|-(5)-5-5--5-5-5-5-|-4-4-4-4-4-4-4-4-|-4-4-4-4-4-4-4-4-|
|---------------|------------------|-----------------|-----------------|
|
| Q  Q  E E E E   +E  E Q  E E E E   E E E E E E E E   E E E E E E E E
|---------------|------------------|-----------------|-----------------|
|---------------|------------------|-----------------|-----------------|
|-2--2--2-2-2-6-|-(6)-6-6--6-6-6-6-|-4-4-4-4-4-4-4-4-|-4-4-4-4-4-4-4-4-|
|-4--4--4-4-4-7-|-(7)-7-7--7-7-7-7-|-6-6-6-6-6-6-6-6-|-6-6-6-6-6-6-6-6-|
|-2--2--2-2-2-5-|-(5)-5-5--5-5-5-5-|-4-4-4-4-4-4-4-4-|-4-4-4-4-4-4-4-4-|
|---------------|------------------|-----------------|-----------------|


   Chorus
    $
     Q   Q   E  E  E E   +E  E Q  E E E E   Q  Q  E E E E   +E  E Q  E E E E
||---------------------|------------------|---------------|-------------------|
||o--------------------|------------------|---------------|-------------------|
||-------------------4-|-(4)-4-4--4-4-4-4-|-7--7--7-7-7-6-|-(6)-6-6--6-6-6-6--|
||---4---4---4--4--4-4-|-(4)-4-4--4-4-4-4-|-7--7--7-7-7-6-|-(6)-6-6--6-6-6-6--|
||o--4---4---4--4--4-2-|-(2)-2-2--2-2-2-2-|-5--5--5-5-5-4-|-(4)-4-4--4-4-4-4--|
||---2---2---2--2--2---|------------------|---------------|-------------------|
|
|    Q   Q   E  E  E E   +E  E Q  E E E E   Q  Q  E E E E   +E  E Q  E E E E
||---------------------|------------------|---------------|-------------------|
||o------------------3-|-(3)-3-3--3-3-3-3-|---------------|-------------------|
||---9---9---9--9--9-4-|-(4)-4-4--4-4-4-4-|-6--6--6-6-6-4-|-(4)-4-4--4-4-4-4--|
||--11--11--11-11-11-4-|-(4)-4-4--4-4-4-4-|-7--7--7-7-7-6-|-(6)-6-6--6-6-6-6--|
||o--9---9---9--9--9-2-|-(2)-2-2--2-2-2-2-|-5--5--5-5-5-4-|-(4)-4-4--4-4-4-4--|
||---------------------|------------------|---------------|-------------------|


                                                                 To Coda
  Q   Q   E E E E   +E  E Q   E E E E   E E E E E E E E   E E E E E E E E
|-----------------|-------------------|-----------------|------------------||
|-----------------|-------------------|-----------------|-----------------o||
|-4---4---4-4-4-7-|-(7)-7-7---7-7-7-7-|-6-6-6-6-6-6-6-6-|-6-6-6-6-6-6-6-6--||
|-4---4---4-4-4-7-|-(7)-7-7---7-7-7-7-|-6-6-6-6-6-6-6-6-|-6-6-6-6-6-6-6-6--||
|-2---2---2-2-2-5-|-(5)-5-5---5-5-5-5-|-4-4-4-4-4-4-4-4-|-4-4-4-4-4-4-4-4-o||
|-----------------|-------------------|-----------------|------------------||
|
| Q   Q   E E E E   +E  E Q   E E E E   E E E E E E E E   E E E E E E E E
|-----------------|-------------------|-----------------|------------------||
|-----------------|-------------------|-----------------|-----------------o||
|-2---2---2-2-2-6-|-(6)-6-6---6-6-6-6-|-4-4-4-4-4-4-4-4-|-4-4-4-4-4-4-4-4--||
|-4---4---4-4-4-7-|-(7)-7-7---7-7-7-7-|-6-6-6-6-6-6-6-6-|-6-6-6-6-6-6-6-6--||
|-2---2---2-2-2-5-|-(5)-5-5---5-5-5-5-|-4-4-4-4-4-4-4-4-|-4-4-4-4-4-4-4-4-o||
|-----------------|-------------------|-----------------|------------------||
|
| Gtr III
| E E E E E E E E    E  E E E E E E E   E E E E E E E E   E E E E E E E E
|---------5-5-4-4-|-------------------|---------5-5-4-4-|------------------||
|-----------------|--5--5-------------|-----------------|-5-5-------------o||
|-4-4-6-6---------|-------6-6-4-4-6-6-|-4-4-6-6---------|-----6-6-4-4-6-6--||
|-----------------|-------------------|-----------------|------------------||
|-----------------|-------------------|-----------------|-----------------o||
|-----------------|-------------------|-----------------|------------------||


 Verse Two
   q  H.           q  Q.   q  e   +e  H.      E
|-------------||----------------|---------------|
|-------------||o---------------|---------------|
|-------------||-----------4--4-|-(4)---------4-|
|--4----------||---4------------|---------------|
|--4----------||o--4-------4--4-|-(4)---------4-|
|--2----------||---2------------|---------------|
|
|  q  H.           q  Q.   q  e   +e  H.      E
|-------------||----------------|---------------|
|-------------||o---------------|---------------|
|--9----------||---9-------4--4-|-(4)---------4-|
|-11----------||--11------------|---------------|
|--9----------||o--9-------4--4-|-(4)---------4-|
|-------------||----------------|---------------|


  E E H    E e   +e  H    q  E
|--------------|----------------||
|--------------|---------------o||
|-6-6--------6-|-(6)------4-----||
|--------------|----------------||
|-5-5--------5-|-(5)------4----o||
|--------------|----------------||
|
| E E H    E e   +e  H    q  E
|--------------|----------------||
|--------------|---------------o||
|-6-6--------6-|-(6)------4-----||
|--------------|----------------||
|-5-5--------5-|-(5)------4----o||
|--------------|----------------||


   q   Q.         q  e    +e  H.      E    E E H          E e    +e  H    q  E
|----------------------|----------------|---------------------|----------------|
|----------------------|----------------|---------------------|----------------|
|-----------------4--4-|--(4)---------4-|--6-6--------------6-|--(6)------4----|
|--4-------------------|----------------|---------------------|----------------|
|--4--------------4--4-|--(4)---------4-|--5-5--------------5-|--(5)------4----|
|--2-------------------|----------------|---------------------|----------------|
|
|  q   Q.         q  e    +e  H.      E    E E H          E e    +e  H    q
|----------------------|----------------|---------------------|----------------|
|----------------------|----------------|---------------------|----------------|
|--9--------------4--4-|--(4)---------4-|--6-6--------------6-|--(6)------4----|
|-11-------------------|----------------|---------------------|----------------|
|--9--------------4--4-|--(4)---------4-|--5-5--------------5-|--(5)------4----|
|----------------------|----------------|---------------------|----------------|
|
| Gtr III
|  E E E   E  +H          +W               E E E  E  +H          +W
|----------------------|----------------|---------------------|----------------|
|---------12-(12)------|-(12)-----------|--------10-(10)------|-(10)-----------|
|----9-----------------|----------------|------9--------------|----------------|
|----------------------|----------------|-11------------------|----------------|
|--9---9---------------|----------------|----9----------------|----------------|
|----------------------|----------------|---------------------|----------------|


   q    Q.   q  e   +e  H..             H     H        H     H
|-----------------|------------------|-------------|--------------|
|-----------------|------------------|-------------|--------------|
|------------4--4-|-(4)--------------|--9-----9----|---9-----9----|
|--4--------------|------------------|-11-----9----|---7-----6----|
|--4---------4--4-|-(4)--------------|-12----11----|---9-----7----|
|--2--------------|------------------|-------------|--------------|
|
|  q    Q.   q  e   +e  H.         E    H     H        H     H
|-----------------|------------------|-------------|--------------|
|-----------------|------------------|-------------|--------------|
|--9---------4--4-|-(4)------------4-|--9-----9----|---9-----9----|
|-11--------------|------------------|-11-----9----|---7-----6----|
|--9---------4--4-|-(4)------------4-|-12----11----|---9-----7----|
|-----------------|------------------|-------------|--------------|
|
|  H..          E    E  E   H.          W             +W
|-----------------|------------------|-------------|--------------|
|-----------------|------------------|-------------|--------------|
|--9--------------|------------------|--9----------|--(9)---------|
|-11--------------|------------------|-11----------|-(11)---------|
|--9------------4-|--4--4------------|-12----------|-(12)---------|
|---------------2-|--2--2------------|-------------|--------------|


 Pre-Chorus Two
                                            D.S. al Coda
  W          W          W                 W
|----------|----------|-----------------|-----------------|
|----------|----------|-----------------|-----------------|
|----------|----------|-----------------|-----------------|
|----------|----------|-----------------|-----------------|
|----------|----------|-----------------|-----------------|
|----------|----------|-----------------|-----------------|
|
| W          W          E E E E E E E E   E E E E E E E E
|----------|----------|-----------------|-----------------|
|----------|----------|-----------------|-----------------|
|-2--------|-6--------|-4-4-4-4-4-4-4-4-|-4-4-4-4-4-4-4-4-|
|-4--------|-7--------|-6-6-6-6-6-6-6-6-|-6-6-6-6-6-6-6-6-|
|-2--------|-5--------|-4-4-4-4-4-4-4-4-|-4-4-4-4-4-4-4-4-|
|----------|----------|-----------------|-----------------|


 Coda
  &
   E  E  E  E  E  E  E E   E E E E E E E E   E E E E E E E E   E E E E E E E E
|------------------------|-----------------|-----------------|-----------------|
|------------------------|-----------------|-----------------|-----------------|
|----------------------4-|-4-4-4-4-4-4-4-4-|-7-7-7-7-7-7-7-6-|-6-6-6-6-6-6-6-6-|
|--4--4--4--4--4--4--4-4-|-4-4-4-4-4-4-4-4-|-7-7-7-7-7-7-7-6-|-6-6-6-6-6-6-6-6-|
|--4--4--4--4--4--4--4-2-|-2-2-2-2-2-2-2-2-|-5-5-5-5-5-5-5-4-|-4-4-4-4-4-4-4-4-|
|--2--2--2--2--2--2--2---|-----------------|-----------------|-----------------|
|
|  E  E  E  E  E  E  E E   E E E E E E E E   E E E E E E E E   E E E E E E E E
|------------------------|-----------------|-----------------|-----------------|
|----------------------3-|-3-3-3-3-3-3-3-3-|-----------------|-----------------|
|--9--9--9--9--9--9--9-4-|-4-4-4-4-4-4-4-4-|-6-6-6-6-6-6-6-4-|-4-4-4-4-4-4-4-4-|
|-11-11-11-11-11-11-11-4-|-4-4-4-4-4-4-4-4-|-7-7-7-7-7-7-7-6-|-6-6-6-6-6-6-6-6-|
|--9--9--9--9--9--9--9-2-|-2-2-2-2-2-2-2-2-|-5-5-5-5-5-5-5-4-|-4-4-4-4-4-4-4-4-|
|------------------------|-----------------|-----------------|-----------------|


  E E E E E E E E   E E E E E E E E   E E E E E E E E   E E E E E E E E
|-----------------|-----------------|-----------------|-----------------|
|-----------------|-----------------|-----------------|-----------------|
|-4-4-4-4-4-4-4-7-|-7-7-7-7-7-7-7-7-|-6-6-6-6-6-6-6-6-|-6-6-6-6-6-6-6-4-|
|-4-4-4-4-4-4-4-7-|-7-7-7-7-7-7-7-7-|-6-6-6-6-6-6-6-6-|-6-6-6-6-6-6-6-6-|
|-2-2-2-2-2-2-2-5-|-5-5-5-5-5-5-5-5-|-4-4-4-4-4-4-4-4-|-4-4-4-4-4-4-4-4-|
|-----------------|-----------------|-----------------|-----------------|
|
| E E E E E E E E   E E E E E E E E   E E E E E E E E   E E E E E E E E
|-----------------|-----------------|-----------------|-----------------|
|-----------------|-----------------|-----------------|-----------------|
|-2-2-2-2-2-2-2-6-|-6-6-6-6-6-6-6-6-|-4-4-4-4-4-4-4-4-|-4-4-4-4-4-4-4-4-|
|-4-4-4-4-4-4-4-7-|-7-7-7-7-7-7-7-7-|-6-6-6-6-6-6-6-6-|-6-6-6-6-6-6-6-6-|
|-2-2-2-2-2-2-2-5-|-5-5-5-5-5-5-5-5-|-4-4-4-4-4-4-4-4-|-4-4-4-4-4-4-4-4-|
|-----------------|-----------------|-----------------|-----------------|
|
| E E E E E E E E   E E E E E E E E   E E E E E E E E   E E E E E E E E
|---------5-5-4-4-|-----------------|---------5-5-4-4-|-----------------|
|-----------------|-5-5-------------|-----------------|-5-5-------------|
|-4-4-6-6---------|-----6-6-4-4-6-6-|-4-4-6-6---------|-----6-6-4-4-6---|
|-----------------|-----------------|-----------------|-----------------|
|-----------------|-----------------|-----------------|-----------------|
|-----------------|-----------------|-----------------|-----------------|


 Breakdown
  +Q   Q.   +Q.     +H..       E   +Q   Q.   Q.     +H..       E
|-----------------|--------------|----------------|--------------|
|-----------------|--------------|----------------|--------------|
|-(4)--6----(6)---|-(6)--------4-|-(4)--6----6----|-(6)--------4-|
|-(6)--7----(7)---|-(7)--------6-|-(6)--7----7----|-(7)--------6-|
|-(4)--5----(5)---|-(5)--------4-|-(4)--5----5----|-(5)--------4-|
|-----------------|--------------|----------------|--------------|
|
| +Q   Q.   +Q.     +H..       E   +Q   Q.   Q.     +H..       E
|-----------------|--------------|----------------|--------------|
|-----------------|--------------|----------------|--------------|
|-(4)--6----(6)---|-(6)--------4-|-(4)--6----6----|-(6)--------4-|
|-(6)--7----(7)---|-(7)--------6-|-(6)--7----7----|-(7)--------6-|
|-(4)--5----(5)---|-(5)--------4-|-(4)--5----5----|-(5)--------4-|
|-----------------|--------------|----------------|--------------|


  Gtrs I, II
  Q  Q.   Q.      W           +H..       E   +Q   Q.   +Q.     +H..       E
|--------------|-----------|---------------|-----------------|--------------|
|--------------|-----------|---------------|-----------------|--------------|
|-4--6----6----|--9--------|--(9)--------4-|-(4)--6----(6)---|-(6)--------4-|
|-6--7----7----|-11--------|-(11)--------6-|-(6)--7----(7)---|-(7)--------6-|
|-4--5----5----|--9--------|--(9)--------4-|-(4)--5----(5)---|-(5)--------4-|
|--------------|-----------|---------------|-----------------|--------------|


  +Q   Q.   Q.     +H..       E   +Q   Q.   Q.      Q.    Q.    Q
|----------------|--------------|----------------|-----------------|
|----------------|--------------|----------------|-----------------|
|-(4)--6----6----|-(6)--------4-|-(4)--6----6----|--9-----9-----9--|
|-(6)--7----7----|-(7)--------6-|-(6)--7----7----|-11----11----11--|
|-(4)--5----5----|-(5)--------4-|-(4)--5----5----|--9-----9----12--|
|----------------|--------------|----------------|-----------------|


 Interlude
  Gtr IV
  W          W          W          W
|----------|----------|----------|------|
|----------|----------|----------|------|
|-2--------|-4--------|-6--------|-4----|
|-4--------|-6--------|-7--------|-6----|
|-2--------|-4--------|-5--------|-4----|
|----------|----------|----------|------|


  W          W          W          +W
|----------|----------|----------|--------|
|----------|----------|----------|--------|
|-2--------|-6--------|-4--------|-(4)----|
|-4--------|-7--------|-6--------|-(6)----|
|-2--------|-5--------|-4--------|-(4)----|
|----------|----------|----------|--------|


   Ending Chorus
    Gtr I
     Q   Q   E  E  E E   +E  E Q  E E E E   Q  Q  E E E E   +E  E Q  E E E E
||---------------------|------------------|---------------|-------------------|
||o--------------------|------------------|---------------|-------------------|
||-------------------4-|-(4)-4-4--4-4-4-4-|-7--7--7-7-7-6-|-(6)-6-6--6-6-6-6--|
||---4---4---4--4--4-4-|-(4)-4-4--4-4-4-4-|-7--7--7-7-7-6-|-(6)-6-6--6-6-6-6--|
||o--4---4---4--4--4-2-|-(2)-2-2--2-2-2-2-|-5--5--5-5-5-4-|-(4)-4-4--4-4-4-4--|
||---2---2---2--2--2---|------------------|---------------|-------------------|
|
|   Gtr II
|    Q   Q   E  E  E E   +E  E Q  E E E E   Q  Q  E E E E   +E  E Q  E E E E
||---------------------|------------------|---------------|-------------------|
||o------------------3-|-(3)-3-3--3-3-3-3-|---------------|-------------------|
||---9---9---9--9--9-4-|-(4)-4-4--4-4-4-4-|-6--6--6-6-6-4-|-(4)-4-4--4-4-4-4--|
||--11--11--11-11-11-4-|-(4)-4-4--4-4-4-4-|-7--7--7-7-7-6-|-(6)-6-6--6-6-6-6--|
||o--9---9---9--9--9-2-|-(2)-2-2--2-2-2-2-|-5--5--5-5-5-4-|-(4)-4-4--4-4-4-4--|
||---------------------|------------------|---------------|-------------------|


  Q   Q   E E E E   +E  E Q   E E E E   E E E E E E E E   E E E E E E E E
|-----------------|-------------------|-----------------|------------------||
|-----------------|-------------------|-----------------|-----------------o||
|-4---4---4-4-4-7-|-(7)-7-7---7-7-7-7-|-6-6-6-6-6-6-6-6-|-6-6-6-6-6-6-6-6--||
|-4---4---4-4-4-7-|-(7)-7-7---7-7-7-7-|-6-6-6-6-6-6-6-6-|-6-6-6-6-6-6-6-6--||
|-2---2---2-2-2-5-|-(5)-5-5---5-5-5-5-|-4-4-4-4-4-4-4-4-|-4-4-4-4-4-4-4-4-o||
|-----------------|-------------------|-----------------|------------------||
|
| Q   Q   E E E E   +E  E Q   E E E E   E E E E E E E E   E E E E E E E E
|-----------------|-------------------|-----------------|------------------||
|-----------------|-------------------|-----------------|-----------------o||
|-2---2---2-2-2-6-|-(6)-6-6---6-6-6-6-|-4-4-4-4-4-4-4-4-|-4-4-4-4-4-4-4-4--||
|-4---4---4-4-4-7-|-(7)-7-7---7-7-7-7-|-6-6-6-6-6-6-6-6-|-6-6-6-6-6-6-6-6--||
|-2---2---2-2-2-5-|-(5)-5-5---5-5-5-5-|-4-4-4-4-4-4-4-4-|-4-4-4-4-4-4-4-4-o||
|-----------------|-------------------|-----------------|------------------||
|
| Gtr III
| E E E E E E E E    E  E E E E E E E   E E E E E E E E   E E E E E E E E
|---------5-5-4-4-|-------------------|---------5-5-4-4-|------------------||
|-----------------|--5--5-------------|-----------------|-5-5-------------o||
|-4-4-6-6---------|-------6-6-4-4-6-6-|-4-4-6-6---------|-----6-6-4-4-6-6--||
|-----------------|-------------------|-----------------|------------------||
|-----------------|-------------------|-----------------|-----------------o||
|-----------------|-------------------|-----------------|------------------||


   Out-Chorus
     E  E  E  E  E  E  E E   E E E E E E E E
||-------------------------|-----------------|
||o------------------------|-----------------|
||-----------------------4-|-4-4-4-4-4-4-4-4-|
||---4--4--4--4--4--4--4-4-|-4-4-4-4-4-4-4-4-|
||o--4--4--4--4--4--4--4-2-|-2-2-2-2-2-2-2-2-|
||---2--2--2--2--2--2--2---|-----------------|
|
|    E  E  E  E  E  E  E E   E E E E E E E E
||-------------------------|-----------------|
||o----------------------3-|-3-3-3-3-3-3-3-3-|
||---9--9--9--9--9--9--9-4-|-4-4-4-4-4-4-4-4-|
||--11-11-11-11-11-11-11-4-|-4-4-4-4-4-4-4-4-|
||o--9--9--9--9--9--9--9-2-|-2-2-2-2-2-2-2-2-|
||-------------------------|-----------------|
|
|    E  E  E  E  E  E  E E   E E E E E E E E
||---------------5--5--4-4-|-----------------|
||o------------------------|-5-5-------------|
||---4--4--6--6------------|-----6-6-4-4-6-6-|
||-------------------------|-----------------|
||o------------------------|-----------------|
||-------------------------|-----------------|


  E E E E E E E E   E E E E E E E E
|-----------------|------------------|
|-----------------|------------------|
|-7-7-7-7-7-7-7-6-|-6-6-6-6-6-6-6-6--|
|-7-7-7-7-7-7-7-6-|-6-6-6-6-6-6-6-6--|
|-5-5-5-5-5-5-5-4-|-4-4-4-4-4-4-4-4--|
|-----------------|------------------|
|
| E E E E E E E E   E E E E E E E E
|-----------------|------------------|
|-----------------|------------------|
|-6-6-6-6-6-6-6-4-|-4-4-4-4-4-4-4-4--|
|-7-7-7-7-7-7-7-6-|-6-6-6-6-6-6-6-6--|
|-5-5-5-5-5-5-5-4-|-4-4-4-4-4-4-4-4--|
|-----------------|------------------|
|
| E E E E E E E E   E E E E E E E E
|---------5-5-4-4-|------------------|
|-----------------|-5-5--------------|
|-4-4-6-6---------|-----6-6-4-4-6-6--|
|-----------------|------------------|
|-----------------|------------------|
|-----------------|------------------|


  E E E E E E E E   E E E E E E E E   E E E E E E E E   E E E E E E E E
|-----------------|-----------------|-----------------|------------------||
|-----------------|-----------------|-----------------|-----------------o||
|-4-4-4-4-4-4-4-7-|-7-7-7-7-7-7-7-7-|-6-6-6-6-6-6-6-6-|-6-6-6-6-6-6-6-6--||
|-4-4-4-4-4-4-4-7-|-7-7-7-7-7-7-7-7-|-6-6-6-6-6-6-6-6-|-6-6-6-6-6-6-6-6--||
|-2-2-2-2-2-2-2-5-|-5-5-5-5-5-5-5-5-|-4-4-4-4-4-4-4-4-|-4-4-4-4-4-4-4-4-o||
|-----------------|-----------------|-----------------|------------------||
|
| E E E E E E E E   E E E E E E E E   E E E E E E E E   E E E E E E E E
|-----------------|-----------------|-----------------|------------------||
|-----------------|-----------------|-----------------|-----------------o||
|-2-2-2-2-2-2-2-6-|-6-6-6-6-6-6-6-6-|-4-4-4-4-4-4-4-4-|-4-4-4-4-4-4-4-4--||
|-4-4-4-4-4-4-4-7-|-7-7-7-7-7-7-7-7-|-6-6-6-6-6-6-6-6-|-6-6-6-6-6-6-6-6--||
|-2-2-2-2-2-2-2-5-|-5-5-5-5-5-5-5-5-|-4-4-4-4-4-4-4-4-|-4-4-4-4-4-4-4-4-o||
|-----------------|-----------------|-----------------|------------------||
|
| E E E E E E E E   E E E E E E E E   E E E E E E E E   E E E E E E E E
|---------5-5-4-4-|-----------------|---------5-5-4-4-|------------------||
|-----------------|-5-5-------------|-----------------|-5-5-------------o||
|-4-4-6-6---------|-----6-6-4-4-6-6-|-4-4-6-6---------|-----6-6-4-4-6-6--||
|-----------------|-----------------|-----------------|------------------||
|-----------------|-----------------|-----------------|-----------------o||
|-----------------|-----------------|-----------------|------------------||


 Outro
   q  Q.   q  e   +e  H.      E   E E H.        W
|---------------|---------------|-------------|------*|
|---------------|---------------|-------------|------*|
|----------4--4-|-(4)---------4-|-6-6---------|------*|
|--4------------|---------------|-------------|------*|
|--4-------4--4-|-(4)---------4-|-5-5---------|------*|
|--2------------|---------------|-------------|------*|
|
|  q  Q.   q  e   +e  H.      E   E E H.        W
|---------------|---------------|-------------|------*|
|---------------|---------------|-------------|------*|
|--9-------4--4-|-(4)---------4-|-6-6---------|------*|
|-11------------|---------------|-------------|------*|
|--9-------4--4-|-(4)---------4-|-5-5---------|------*|
|---------------|---------------|-------------|------*|


--------------------------------------------------------------------------------


Duration Legend
---------------
W - whole; H - half; Q - quarter; E - 8th; S - 16th; T - 32nd; X - 64th; a - acciaccatura
+ - note tied to previous; . - note dotted; .. - note double dotted
Uncapitalized letters represent notes that are staccato (1/2 duration)
Irregular groupings are notated above the duration line
Duration letters will always appear directly above the note/fret number it represents the
duration for.  Duration letters with no fret number below them represent rests.  Multi-
bar rests are notated in the form Wxn, where n is the number of bars to rest for.  Low
melody durations appear below the staff

Tablature Legend
----------------
 h   - hammer-on
 p   - pull-off
 b   - bend
 pb  - pre-bend
 r   - bend release (if no number after the r, then release immediately)
 /\  - slide into or out of (from/to "nowhere")
 s   - legato slide
 S   - shift slide
 - natural harmonic
[n]  - artificial harmonic
n(n) - tapped harmonic
 ~   - vibrato
 tr  - trill
 T   - tap
 TP  - trem. picking
 PM  - palm muting
\n/  - tremolo bar dip; n = amount to dip
 \n  - tremolo bar down
 n/  - tremolo bar up
/n\  - tremolo bar inverted dip
 =   - hold bend; also acts as connecting device for hammers/pulls
 <> - volume swell (louder/softer)
 x   - on rhythm slash represents muted slash
 o   - on rhythm slash represents single note slash

Misc Legend
-----------
 |  - bar
||  - double bar
||o - repeat start
o|| - repeat end
*|  - double bar (ending)
 :  - bar (freetime)
 $  - Segno
 &  - Coda
Tempo markers -  = BPM(8/16=s8/s16), where s8 = swing 8ths, s16 = swing 16ths

--------------------------------------------------------------------------------





Comments


Popular Taking Back Sunday tabs & chords
Summer Stars Bass Tabs
Timberwolves At New Jersey Bass Tabs
Devine Intervention Tabs
Didnt See That Coming Intro Tabs
Divine Intervention 3 Tabs
Error Operator 3 Tabs
Liar It Takes One To Know One Intro Tabs
What It Feels Like To Be A Ghost Tabs
You're So Last Summer Tabs
Belgium Waffles Song Ukulele


Song lyrics



↑ Back to top | Tablatures and chords are parodies/interpretations of the original songs. You may use it for private study, scholarship, research or language learning purposes only
© 2014 AZChords.com Contact us | Privacy policy | DMCA | Add/correct tabs | Request tabs | Top 50 tabs