» » »

Taking Back Sunday, Call Me In The Morning Tabs (ver.4)

Artists:  A B C D E F G H I J K L M N O P Q R S T U V W X Y Z # 

Call Me In The Morning Tabs (ver.4)

Taking Back Sunday Tabs
 Rating:
4/5 (4 votes)
Call Me In The Morning lessons Tabs too difficult? Try these video lessons and learn fast
1
                Call me in the morning by Taking Back Sunday

G      320033
Em7    022033
Cadd9  X32033


[Intro]
  G                Cadd9 
e------------------------|
B----3----3----3------3--|
G-----0----0----0------0-| repeat twice
D---0----0----0------2---|
A------------------3-----|
E-3----------------------|

[Verse 1]
Well I don't know where..But I know where we've been

  G                      Cadd9 
e--------------------------------|
B-----3------3-----3---------3---|
G-------0------0-----0---------0-| repeat until pre-chorus 
D---0------0------0--------2-----|  (A ticking bomb part)
A------------------------3-------|
E-3------------------------------|

[Pre-Chorus]

 A ticking bomb..A false alarm...A wrecki-..(end in G)  
  G               Cadd9           G       Cadd9           (G)
e----------------------------------------------------------3|
B-----3------3--------3-------3-------3-------3------3-----3|
G-------0------0--------0-------0-------0-------0-----0----0|
D---0------0--------2-------2-------0--------2-----2-------0|
A-2---------------3------------------------3---------------2|
E---------------------------------3------------------------3|



                   (G)
Just call me in the morning.

             (Em7)
Call me when you're home.

                  (Cadd9)
I know what you've been through,

          (G~)
don't let go.

(NC)
Don't let go.


[Interlude]

  G                Cadd9 
e------3----3------------|
B----3----3----3------3--|
G-----0----0----0------0-| repeat twice
D---0----0----0------2---|
A------------------3-----|
E-3----------------------|

[Verse 2]
Well you reached into my mouth pulled out a single...

  G                      Cadd9 
e--------------------------------|
B-----3------3-----3---------3---|
G-------0------0-----0---------0-| repeat until pre-chorus 
D---0------0------0--------2-----|  (A ticking bomb part)
A------------------------3-------|
E-3------------------------------|

[Pre-Chorus]
 
 A ticking bomb..A false alarm...A wrecki-..(end in G)  
  G               Cadd9           G       Cadd9           (G)
e----------------------------------------------------------3|
B-----3------3--------3-------3-------3-------3------3-----3|
G-------0------0--------0-------0-------0-------0-----0----0|
D---0------0--------2-------2-------0--------2-----2-------0|
A-2---------------3------------------------3---------------2|
E---------------------------------3------------------------3|


(G)
Just call me in the morning.

             (Em7)
Call me when you're home.

                  (Cadd9)
I know what you've been through,

          (G)
don't let go.


Honey Don't let go.

(G)
Just call me in the morning.

             (Em7)
Call me when you're home.

                  (Cadd9)
I know what you've been through,

          (G)
don't let go.


[Interlude 2]
 You never knew that it would take...
e--------------------|
B---3----3----3----3-|
G----0----0----0----0|(Repeat until Chorus
D-00---00---22---22--|     Chorus)
A--------------------|
E--------------------| Also end in G


 I Don' know where your going...
  G                Cadd9 
e------------------------|
B----3----3----3------3--|
G-----0----0----0------0-| repeat twice
D---0----0----0------2---| except cadd9 part 
A------------------3-----|
E-3----------------------| instead end in Cadd9



                   (G)
Call me in the morning.

             (Em7)
Call me when you're home.

                  (Cadd9)
I know what you've been through,

          (G)
don't let go.

(G)
Call me in the morning.

             (Em7)
Call me when you're home.

                  (Cadd9)
I know what you've been through,

          (G)
don't let go.

  G
I don't know where were going

    Em7
but I know where we've been.

           Cadd9
We've been hiding from each other,

           G
we've been hiding from our sins.

Call Me when your home.....
  G                      Cadd9 
e--------------------------------|
B-----3------3-----3---------3---|
G-------0------0-----0---------0-| Repeat a few times  
D---0------0------0--------2-----| and End in G
A------------------------3-------|
E-3------------------------------|


I wrote a tab before but had it written wrong way lol. So this is the official one.
            
Submit corrections

comments powered by Disqus
↑ Back to top | Taking Back Sunday Tabs for Call Me In The Morning. Lyrics for acoustic guitar and electric guitar. 1 Tablatures and chords are parodies/interpretations of the original songs. You may use it for private study, scholarship, research or language learning purposes only